ISO-10303-21;
HEADER;
FILE_DESCRIPTION (( 'STEP AP214' ),
    '1' );
FILE_NAME ('6290176.stp',
    '2016-06-29T05:44:54',
    ( '' ),
    ( '' ),
    'SwSTEP 2.0',
    'SolidWorks 2014',
    '' );
FILE_SCHEMA (( 'AUTOMOTIVE_DESIGN' ));
ENDSEC;

DATA;
#1 = LINE ( 'NONE', #249, #195 ) ;
#2 = EDGE_CURVE ( 'NONE', #177, #79, #182, .T. ) ;
#3 = ORIENTED_EDGE ( 'NONE', *, *, #88, .F. ) ;
#4 = CARTESIAN_POINT ( 'NONE',  ( 66.99999999999998600, 4.000000000000000000, -52.00000000000001400 ) ) ;
#5 = DIRECTION ( 'NONE',  ( -0.0000000000000000000, -1.000000000000000000, -0.0000000000000000000 ) ) ;
#6 = EDGE_CURVE ( 'NONE', #107, #177, #142, .T. ) ;
#7 = FACE_OUTER_BOUND ( 'NONE', #254, .T. ) ;
#8 = ORIENTED_EDGE ( 'NONE', *, *, #105, .F. ) ;
#9 = PRODUCT_CONTEXT ( 'NONE', #85, 'mechanical' ) ;
#10 = DIRECTION ( 'NONE',  ( 1.000000000000000000, 0.0000000000000000000, 0.0000000000000000000 ) ) ;
#11 = STYLED_ITEM ( 'NONE', ( #278 ), #150 ) ;
#12 = ORIENTED_EDGE ( 'NONE', *, *, #293, .T. ) ;
#13 = VECTOR ( 'NONE', #236, 1000.000000000000000 ) ;
#14 = PRODUCT_DEFINITION_CONTEXT ( 'detailed design', #298, 'design' ) ;
#15 = ORIENTED_EDGE ( 'NONE', *, *, #108, .F. ) ;
#16 = CARTESIAN_POINT ( 'NONE',  ( -67.00000000000001400, 4.000000000000000000, -52.00000000000001400 ) ) ;
#17 = EDGE_CURVE ( 'NONE', #124, #314, #340, .T. ) ;
#18 = DIRECTION ( 'NONE',  ( -0.0000000000000000000, 1.000000000000000000, -0.0000000000000000000 ) ) ;
#19 = EDGE_CURVE ( 'NONE', #79, #237, #75, .T. ) ;
#20 = CARTESIAN_POINT ( 'NONE',  ( 69.99999999999998600, 0.0000000000000000000, -55.00000000000001400 ) ) ;
#21 = DIRECTION ( 'NONE',  ( 0.0000000000000000000, 0.0000000000000000000, 1.000000000000000000 ) ) ;
#22 = DIRECTION ( 'NONE',  ( 0.0000000000000000000, 0.0000000000000000000, 1.000000000000000000 ) ) ;
#23 = DIRECTION ( 'NONE',  ( 0.0000000000000000000, -1.000000000000000000, 0.0000000000000000000 ) ) ;
#24 = DIRECTION ( 'NONE',  ( 0.0000000000000000000, 0.0000000000000000000, 1.000000000000000000 ) ) ;
#25 = AXIS2_PLACEMENT_3D ( 'NONE', #264, #267, #294 ) ;
#26 = ORIENTED_EDGE ( 'NONE', *, *, #255, .F. ) ;
#27 = DIRECTION ( 'NONE',  ( 0.0000000000000000000, 0.0000000000000000000, 1.000000000000000000 ) ) ;
#28 = CARTESIAN_POINT ( 'NONE',  ( 69.99999999999998600, 4.000000000000000000, -55.00000000000001400 ) ) ;
#29 = ORIENTED_EDGE ( 'NONE', *, *, #122, .T. ) ;
#30 = DIRECTION ( 'NONE',  ( 1.000000000000000000, 0.0000000000000000000, 0.0000000000000000000 ) ) ;
#31 = EDGE_LOOP ( 'NONE', ( #251, #129, #3, #29, #240, #104, #47, #189 ) ) ;
#32 = EDGE_CURVE ( 'NONE', #132, #302, #266, .T. ) ;
#33 = UNCERTAINTY_MEASURE_WITH_UNIT (LENGTH_MEASURE( 1.000000000000000100E-005 ), #312, 'distance_accuracy_value', 'NONE');
#34 = EDGE_LOOP ( 'NONE', ( #223, #205, #320, #323, #90, #127, #243, #227 ) ) ;
#35 = VECTOR ( 'NONE', #18, 1000.000000000000000 ) ;
#36 = SURFACE_STYLE_FILL_AREA ( #339 ) ;
#37 = VECTOR ( 'NONE', #235, 1000.000000000000000 ) ;
#38 = ORIENTED_EDGE ( 'NONE', *, *, #190, .F. ) ;
#39 = ADVANCED_FACE ( 'NONE', ( #77 ), #163, .F. ) ;
#40 = CARTESIAN_POINT ( 'NONE',  ( -69.99999999999998600, 0.0000000000000000000, 51.99999999999998600 ) ) ;
#41 = VECTOR ( 'NONE', #174, 1000.000000000000000 ) ;
#42 = EDGE_LOOP ( 'NONE', ( #56, #50, #111, #297 ) ) ;
#43 = CARTESIAN_POINT ( 'NONE',  ( 0.0000000000000000000, 0.0000000000000000000, 0.0000000000000000000 ) ) ;
#44 = CARTESIAN_POINT ( 'NONE',  ( -70.00000000000001400, 0.0000000000000000000, -52.00000000000001400 ) ) ;
#45 = ADVANCED_FACE ( 'NONE', ( #7 ), #54, .F. ) ;
#46 = CARTESIAN_POINT ( 'NONE',  ( 66.99999999999998600, 4.000000000000000000, -52.00000000000001400 ) ) ;
#47 = ORIENTED_EDGE ( 'NONE', *, *, #305, .F. ) ;
#48 = EDGE_CURVE ( 'NONE', #95, #124, #128, .T. ) ;
#49 = DIRECTION ( 'NONE',  ( -0.0000000000000000000, -1.000000000000000000, -0.0000000000000000000 ) ) ;
#50 = ORIENTED_EDGE ( 'NONE', *, *, #241, .F. ) ;
#51 = LINE ( 'NONE', #170, #225 ) ;
#52 = FACE_OUTER_BOUND ( 'NONE', #82, .T. ) ;
#53 = CARTESIAN_POINT ( 'NONE',  ( 69.99999999999998600, 4.000000000000000000, -52.00000000000001400 ) ) ;
#54 = PLANE ( 'NONE',  #300 ) ;
#55 = LINE ( 'NONE', #94, #221 ) ;
#56 = ORIENTED_EDGE ( 'NONE', *, *, #6, .F. ) ;
#57 = APPLICATION_PROTOCOL_DEFINITION ( 'draft international standard', 'automotive_design', 1998, #298 ) ;
#58 = CIRCLE ( 'NONE', #133, 3.000000000000002700 ) ;
#59 =( NAMED_UNIT ( * ) SI_UNIT ( $, .STERADIAN. ) SOLID_ANGLE_UNIT ( ) );
#60 = VERTEX_POINT ( 'NONE', #290 ) ;
#61 = LINE ( 'NONE', #20, #37 ) ;
#62 = CYLINDRICAL_SURFACE ( 'NONE', #262, 3.000000000000002700 ) ;
#63 =( NAMED_UNIT ( * ) PLANE_ANGLE_UNIT ( ) SI_UNIT ( $, .RADIAN. ) );
#64 = AXIS2_PLACEMENT_3D ( 'NONE', #261, #311, #326 ) ;
#65 = ORIENTED_EDGE ( 'NONE', *, *, #32, .F. ) ;
#66 = SURFACE_STYLE_USAGE ( .BOTH. , #74 ) ;
#67 = CARTESIAN_POINT ( 'NONE',  ( -70.00000000000001400, 4.000000000000000000, -52.00000000000001400 ) ) ;
#68 = ORIENTED_EDGE ( 'NONE', *, *, #217, .T. ) ;
#69 = EDGE_CURVE ( 'NONE', #84, #330, #279, .T. ) ;
#70 = ADVANCED_FACE ( 'NONE', ( #201 ), #265, .F. ) ;
#71 = EDGE_CURVE ( 'NONE', #330, #60, #134, .T. ) ;
#72 = CARTESIAN_POINT ( 'NONE',  ( -66.99999999999998600, 0.0000000000000000000, 51.99999999999998600 ) ) ;
#73 = MECHANICAL_DESIGN_GEOMETRIC_PRESENTATION_REPRESENTATION (  '', ( #11 ), #220 ) ;
#74 = SURFACE_SIDE_STYLE ('',( #175 ) ) ;
#75 = CIRCLE ( 'NONE', #116, 3.000000000000002700 ) ;
#76 = FILL_AREA_STYLE_COLOUR ( '', #83 ) ;
#77 = FACE_OUTER_BOUND ( 'NONE', #147, .T. ) ;
#78 = FILL_AREA_STYLE ('',( #118 ) ) ;
#79 = VERTEX_POINT ( 'NONE', #44 ) ;
#80 = DIRECTION ( 'NONE',  ( 0.0000000000000000000, 1.000000000000000000, 0.0000000000000000000 ) ) ;
#81 = COLOUR_RGB ( '',0.7529411764705882200, 0.7529411764705882200, 0.7529411764705882200 ) ;
#82 = EDGE_LOOP ( 'NONE', ( #121, #218, #258, #176 ) ) ;
#83 = COLOUR_RGB ( '',0.7529411764705882200, 0.7529411764705882200, 0.7529411764705882200 ) ;
#84 = VERTEX_POINT ( 'NONE', #123 ) ;
#85 = APPLICATION_CONTEXT ( 'automotive_design' ) ;
#86 = AXIS2_PLACEMENT_3D ( 'NONE', #16, #191, #331 ) ;
#87 = APPLICATION_PROTOCOL_DEFINITION ( 'draft international standard', 'automotive_design', 1998, #85 ) ;
#88 = EDGE_CURVE ( 'NONE', #314, #110, #169, .T. ) ;
#89 = EDGE_CURVE ( 'NONE', #302, #327, #213, .T. ) ;
#90 = ORIENTED_EDGE ( 'NONE', *, *, #190, .T. ) ;
#91 = VERTEX_POINT ( 'NONE', #40 ) ;
#92 = DIRECTION ( 'NONE',  ( 0.0000000000000000000, -1.000000000000000000, 0.0000000000000000000 ) ) ;
#93 = DIRECTION ( 'NONE',  ( -2.523234146875356000E-016, 0.0000000000000000000, -1.000000000000000000 ) ) ;
#94 = CARTESIAN_POINT ( 'NONE',  ( -70.00000000000001400, 4.000000000000000000, -55.00000000000001400 ) ) ;
#95 = VERTEX_POINT ( 'NONE', #103 ) ;
#96 = VECTOR ( 'NONE', #200, 1000.000000000000000 ) ;
#97 = CARTESIAN_POINT ( 'NONE',  ( -67.00000000000001400, 0.0000000000000000000, -55.00000000000001400 ) ) ;
#98 =( NAMED_UNIT ( * ) SI_UNIT ( $, .STERADIAN. ) SOLID_ANGLE_UNIT ( ) );
#99 = EDGE_LOOP ( 'NONE', ( #26, #212, #239, #12 ) ) ;
#100 =( NAMED_UNIT ( * ) SI_UNIT ( $, .STERADIAN. ) SOLID_ANGLE_UNIT ( ) );
#101 = AXIS2_PLACEMENT_3D ( 'NONE', #271, #80, #21 ) ;
#102 = DIRECTION ( 'NONE',  ( 0.0000000000000000000, 1.000000000000000000, 0.0000000000000000000 ) ) ;
#103 = CARTESIAN_POINT ( 'NONE',  ( -69.99999999999998600, 4.000000000000000000, 51.99999999999998600 ) ) ;
#104 = ORIENTED_EDGE ( 'NONE', *, *, #19, .T. ) ;
#105 = EDGE_CURVE ( 'NONE', #124, #132, #301, .T. ) ;
#106 = MECHANICAL_DESIGN_GEOMETRIC_PRESENTATION_REPRESENTATION (  '', ( #342 ), #214 ) ;
#107 = VERTEX_POINT ( 'NONE', #318 ) ;
#108 = EDGE_CURVE ( 'NONE', #327, #110, #289, .T. ) ;
#109 =( NAMED_UNIT ( * ) PLANE_ANGLE_UNIT ( ) SI_UNIT ( $, .RADIAN. ) );
#110 = VERTEX_POINT ( 'NONE', #125 ) ;
#111 = ORIENTED_EDGE ( 'NONE', *, *, #19, .F. ) ;
#112 =( LENGTH_UNIT ( ) NAMED_UNIT ( * ) SI_UNIT ( .MILLI., .METRE. ) );
#113 = AXIS2_PLACEMENT_3D ( 'NONE', #283, #197, #164 ) ;
#114 = ORIENTED_EDGE ( 'NONE', *, *, #135, .F. ) ;
#115 = DIRECTION ( 'NONE',  ( -0.0000000000000000000, -1.000000000000000000, -0.0000000000000000000 ) ) ;
#116 = AXIS2_PLACEMENT_3D ( 'NONE', #336, #259, #171 ) ;
#117 = DIRECTION ( 'NONE',  ( 0.0000000000000000000, 0.0000000000000000000, 1.000000000000000000 ) ) ;
#118 = FILL_AREA_STYLE_COLOUR ( '', #81 ) ;
#119 = CARTESIAN_POINT ( 'NONE',  ( 66.99999999999998600, 0.0000000000000000000, -52.00000000000001400 ) ) ;
#120 = CARTESIAN_POINT ( 'NONE',  ( -67.00000000000001400, 4.000000000000000000, -52.00000000000001400 ) ) ;
#121 = ORIENTED_EDGE ( 'NONE', *, *, #69, .F. ) ;
#122 = EDGE_CURVE ( 'NONE', #314, #91, #244, .T. ) ;
#123 = CARTESIAN_POINT ( 'NONE',  ( 69.99999999999998600, 4.000000000000000000, -52.00000000000001400 ) ) ;
#124 = VERTEX_POINT ( 'NONE', #138 ) ;
#125 = CARTESIAN_POINT ( 'NONE',  ( 66.99999999999998600, 0.0000000000000000000, 54.99999999999998600 ) ) ;
#126 = DIRECTION ( 'NONE',  ( -1.000000000000000000, 0.0000000000000000000, 0.0000000000000000000 ) ) ;
#127 = ORIENTED_EDGE ( 'NONE', *, *, #6, .T. ) ;
#128 = CIRCLE ( 'NONE', #322, 3.000000000000002700 ) ;
#129 = ORIENTED_EDGE ( 'NONE', *, *, #108, .T. ) ;
#130 = DIRECTION ( 'NONE',  ( -0.0000000000000000000, 1.000000000000000000, -0.0000000000000000000 ) ) ;
#131 = AXIS2_PLACEMENT_3D ( 'NONE', #46, #102, #207 ) ;
#132 = VERTEX_POINT ( 'NONE', #145 ) ;
#133 = AXIS2_PLACEMENT_3D ( 'NONE', #119, #49, #173 ) ;
#134 = LINE ( 'NONE', #263, #13 ) ;
#135 = EDGE_CURVE ( 'NONE', #302, #84, #252, .T. ) ;
#136 = ORIENTED_EDGE ( 'NONE', *, *, #48, .F. ) ;
#137 = AXIS2_PLACEMENT_3D ( 'NONE', #4, #310, #338 ) ;
#138 = CARTESIAN_POINT ( 'NONE',  ( -66.99999999999998600, 4.000000000000000000, 54.99999999999998600 ) ) ;
#139 = CARTESIAN_POINT ( 'NONE',  ( -69.99999999999998600, 0.0000000000000000000, 54.99999999999998600 ) ) ;
#140 = DIRECTION ( 'NONE',  ( -0.0000000000000000000, 1.000000000000000000, -0.0000000000000000000 ) ) ;
#141 = CARTESIAN_POINT ( 'NONE',  ( -70.00000000000001400, 4.000000000000000000, -55.00000000000001400 ) ) ;
#142 = CIRCLE ( 'NONE', #86, 3.000000000000002700 ) ;
#143 = SURFACE_SIDE_STYLE ('',( #36 ) ) ;
#144 = VECTOR ( 'NONE', #295, 1000.000000000000000 ) ;
#145 = CARTESIAN_POINT ( 'NONE',  ( 66.99999999999998600, 4.000000000000000000, 54.99999999999998600 ) ) ;
#146 = CARTESIAN_POINT ( 'NONE',  ( 66.99999999999998600, 4.000000000000000000, -55.00000000000001400 ) ) ;
#147 = EDGE_LOOP ( 'NONE', ( #38, #246, #334, #282 ) ) ;
#148 = CARTESIAN_POINT ( 'NONE',  ( -69.99999999999998600, 4.000000000000000000, 54.99999999999998600 ) ) ;
#149 = CARTESIAN_POINT ( 'NONE',  ( -70.00000000000001400, 4.000000000000000000, -52.00000000000001400 ) ) ;
#150 = MANIFOLD_SOLID_BREP ( 'Fillet1', #270 ) ;
#151 = PRODUCT ( '6290176', '6290176', '', ( #9 ) ) ;
#152 = PLANE ( 'NONE',  #64 ) ;
#153 = ORIENTED_EDGE ( 'NONE', *, *, #17, .T. ) ;
#154 = ADVANCED_FACE ( 'NONE', ( #161 ), #62, .T. ) ;
#155 = ORIENTED_EDGE ( 'NONE', *, *, #325, .F. ) ;
#156 = EDGE_CURVE ( 'NONE', #292, #84, #234, .T. ) ;
#157 = CARTESIAN_POINT ( 'NONE',  ( 69.99999999999998600, 0.0000000000000000000, 51.99999999999998600 ) ) ;
#158 = CARTESIAN_POINT ( 'NONE',  ( 66.99999999999998600, 4.000000000000000000, 54.99999999999998600 ) ) ;
#159 = PRESENTATION_LAYER_ASSIGNMENT (  '', '', ( #11 ) ) ;
#160 = ORIENTED_EDGE ( 'NONE', *, *, #156, .T. ) ;
#161 = FACE_OUTER_BOUND ( 'NONE', #166, .T. ) ;
#162 = ORIENTED_EDGE ( 'NONE', *, *, #122, .F. ) ;
#163 = PLANE ( 'NONE',  #113 ) ;
#164 = DIRECTION ( 'NONE',  ( 1.000000000000000000, 0.0000000000000000000, -0.0000000000000000000 ) ) ;
#165 = DIRECTION ( 'NONE',  ( 0.0000000000000000000, -0.0000000000000000000, 1.000000000000000000 ) ) ;
#166 = EDGE_LOOP ( 'NONE', ( #136, #269, #162, #193 ) ) ;
#167 = PRESENTATION_STYLE_ASSIGNMENT (( #66 ) ) ;
#168 = DIRECTION ( 'NONE',  ( 0.0000000000000000000, 0.0000000000000000000, -1.000000000000000000 ) ) ;
#169 = LINE ( 'NONE', #139, #253 ) ;
#170 = CARTESIAN_POINT ( 'NONE',  ( -67.00000000000001400, 4.000000000000000000, -55.00000000000001400 ) ) ;
#171 = DIRECTION ( 'NONE',  ( 0.0000000000000000000, 0.0000000000000000000, 1.000000000000000000 ) ) ;
#172 = SURFACE_STYLE_USAGE ( .BOTH. , #143 ) ;
#173 = DIRECTION ( 'NONE',  ( 0.0000000000000000000, 0.0000000000000000000, 1.000000000000000000 ) ) ;
#174 = DIRECTION ( 'NONE',  ( -1.000000000000000000, -0.0000000000000000000, -0.0000000000000000000 ) ) ;
#175 = SURFACE_STYLE_FILL_AREA ( #78 ) ;
#176 = ORIENTED_EDGE ( 'NONE', *, *, #71, .F. ) ;
#177 = VERTEX_POINT ( 'NONE', #149 ) ;
#178 = EDGE_CURVE ( 'NONE', #60, #292, #58, .T. ) ;
#179 = EDGE_LOOP ( 'NONE', ( #288, #328, #8, #153 ) ) ;
#180 = AXIS2_PLACEMENT_3D ( 'NONE', #120, #324, #299 ) ;
#181 = DIRECTION ( 'NONE',  ( 0.0000000000000000000, 1.000000000000000000, 0.0000000000000000000 ) ) ;
#182 = LINE ( 'NONE', #67, #273 ) ;
#183 = ORIENTED_EDGE ( 'NONE', *, *, #89, .F. ) ;
#184 = PLANE ( 'NONE',  #335 ) ;
#185 = UNCERTAINTY_MEASURE_WITH_UNIT (LENGTH_MEASURE( 1.000000000000000100E-005 ), #219, 'distance_accuracy_value', 'NONE');
#186 = AXIS2_PLACEMENT_3D ( 'NONE', #248, #309, #198 ) ;
#187 = SHAPE_DEFINITION_REPRESENTATION ( #202, #260 ) ;
#188 = VECTOR ( 'NONE', #130, 1000.000000000000000 ) ;
#189 = ORIENTED_EDGE ( 'NONE', *, *, #178, .T. ) ;
#190 = EDGE_CURVE ( 'NONE', #330, #107, #277, .T. ) ;
#191 = DIRECTION ( 'NONE',  ( 0.0000000000000000000, 1.000000000000000000, 0.0000000000000000000 ) ) ;
#192 = ADVANCED_FACE ( 'NONE', ( #52 ), #228, .T. ) ;
#193 = ORIENTED_EDGE ( 'NONE', *, *, #17, .F. ) ;
#194 = LINE ( 'NONE', #158, #188 ) ;
#195 = VECTOR ( 'NONE', #257, 1000.000000000000000 ) ;
#196 = CARTESIAN_POINT ( 'NONE',  ( 0.0000000000000000000, 0.0000000000000000000, 0.0000000000000000000 ) ) ;
#197 = DIRECTION ( 'NONE',  ( 0.0000000000000000000, 0.0000000000000000000, 1.000000000000000000 ) ) ;
#198 = DIRECTION ( 'NONE',  ( 0.0000000000000000000, -0.0000000000000000000, 1.000000000000000000 ) ) ;
#199 = CYLINDRICAL_SURFACE ( 'NONE', #25, 3.000000000000002700 ) ;
#200 = DIRECTION ( 'NONE',  ( -0.0000000000000000000, -0.0000000000000000000, -1.000000000000000000 ) ) ;
#201 = FACE_OUTER_BOUND ( 'NONE', #99, .T. ) ;
#202 = PRODUCT_DEFINITION_SHAPE ( 'NONE', 'NONE',  #313 ) ;
#203 = FACE_OUTER_BOUND ( 'NONE', #31, .T. ) ;
#204 = VECTOR ( 'NONE', #140, 1000.000000000000000 ) ;
#205 = ORIENTED_EDGE ( 'NONE', *, *, #32, .T. ) ;
#206 = CYLINDRICAL_SURFACE ( 'NONE', #180, 3.000000000000002700 ) ;
#207 = DIRECTION ( 'NONE',  ( 0.0000000000000000000, 0.0000000000000000000, 1.000000000000000000 ) ) ;
#208 = AXIS2_PLACEMENT_3D ( 'NONE', #341, #115, #24 ) ;
#209 = CARTESIAN_POINT ( 'NONE',  ( -70.00000000000001400, 4.000000000000000000, -55.00000000000001400 ) ) ;
#210 = FACE_OUTER_BOUND ( 'NONE', #34, .T. ) ;
#211 = LINE ( 'NONE', #337, #222 ) ;
#212 = ORIENTED_EDGE ( 'NONE', *, *, #2, .T. ) ;
#213 = LINE ( 'NONE', #242, #144 ) ;
#214 =( GEOMETRIC_REPRESENTATION_CONTEXT ( 3 ) GLOBAL_UNCERTAINTY_ASSIGNED_CONTEXT ( ( #185 ) ) GLOBAL_UNIT_ASSIGNED_CONTEXT ( ( #219, #63, #59 ) ) REPRESENTATION_CONTEXT ( 'NONE', 'WORKASPACE' ) );
#215 = FACE_OUTER_BOUND ( 'NONE', #276, .T. ) ;
#216 = FACE_OUTER_BOUND ( 'NONE', #42, .T. ) ;
#217 = EDGE_CURVE ( 'NONE', #327, #292, #61, .T. ) ;
#218 = ORIENTED_EDGE ( 'NONE', *, *, #156, .F. ) ;
#219 =( LENGTH_UNIT ( ) NAMED_UNIT ( * ) SI_UNIT ( .MILLI., .METRE. ) );
#220 =( GEOMETRIC_REPRESENTATION_CONTEXT ( 3 ) GLOBAL_UNCERTAINTY_ASSIGNED_CONTEXT ( ( #33 ) ) GLOBAL_UNIT_ASSIGNED_CONTEXT ( ( #312, #287, #98 ) ) REPRESENTATION_CONTEXT ( 'NONE', 'WORKASPACE' ) );
#221 = VECTOR ( 'NONE', #286, 1000.000000000000000 ) ;
#222 = VECTOR ( 'NONE', #333, 1000.000000000000000 ) ;
#223 = ORIENTED_EDGE ( 'NONE', *, *, #105, .T. ) ;
#224 = VECTOR ( 'NONE', #304, 1000.000000000000000 ) ;
#225 = VECTOR ( 'NONE', #281, 1000.000000000000000 ) ;
#226 = FACE_OUTER_BOUND ( 'NONE', #179, .T. ) ;
#227 = ORIENTED_EDGE ( 'NONE', *, *, #48, .T. ) ;
#228 = CYLINDRICAL_SURFACE ( 'NONE', #137, 3.000000000000002700 ) ;
#229 = CARTESIAN_POINT ( 'NONE',  ( -66.99999999999998600, 4.000000000000000000, 51.99999999999998600 ) ) ;
#230 = CARTESIAN_POINT ( 'NONE',  ( -66.99999999999998600, 0.0000000000000000000, 54.99999999999998600 ) ) ;
#231 = DIRECTION ( 'NONE',  ( 0.0000000000000000000, 1.000000000000000000, 0.0000000000000000000 ) ) ;
#232 = AXIS2_PLACEMENT_3D ( 'NONE', #141, #285, #93 ) ;
#233 = PLANE ( 'NONE',  #186 ) ;
#234 = LINE ( 'NONE', #53, #35 ) ;
#235 = DIRECTION ( 'NONE',  ( -0.0000000000000000000, -0.0000000000000000000, -1.000000000000000000 ) ) ;
#236 = DIRECTION ( 'NONE',  ( 0.0000000000000000000, -1.000000000000000000, 0.0000000000000000000 ) ) ;
#237 = VERTEX_POINT ( 'NONE', #97 ) ;
#238 = CARTESIAN_POINT ( 'NONE',  ( 69.99999999999998600, 4.000000000000000000, -55.00000000000001400 ) ) ;
#239 = ORIENTED_EDGE ( 'NONE', *, *, #274, .T. ) ;
#240 = ORIENTED_EDGE ( 'NONE', *, *, #274, .F. ) ;
#241 = EDGE_CURVE ( 'NONE', #237, #107, #51, .T. ) ;
#242 = CARTESIAN_POINT ( 'NONE',  ( 69.99999999999998600, 4.000000000000000000, 51.99999999999998600 ) ) ;
#243 = ORIENTED_EDGE ( 'NONE', *, *, #255, .T. ) ;
#244 = CIRCLE ( 'NONE', #250, 3.000000000000002700 ) ;
#245 = VECTOR ( 'NONE', #319, 1000.000000000000000 ) ;
#246 = ORIENTED_EDGE ( 'NONE', *, *, #71, .T. ) ;
#247 = CARTESIAN_POINT ( 'NONE',  ( 69.99999999999998600, 4.000000000000000000, 51.99999999999998600 ) ) ;
#248 = CARTESIAN_POINT ( 'NONE',  ( 0.0000000000000000000, 4.000000000000000000, 0.0000000000000000000 ) ) ;
#249 = CARTESIAN_POINT ( 'NONE',  ( -70.00000000000001400, 0.0000000000000000000, -55.00000000000001400 ) ) ;
#250 = AXIS2_PLACEMENT_3D ( 'NONE', #72, #5, #117 ) ;
#251 = ORIENTED_EDGE ( 'NONE', *, *, #217, .F. ) ;
#252 = LINE ( 'NONE', #28, #96 ) ;
#253 = VECTOR ( 'NONE', #30, 1000.000000000000000 ) ;
#254 = EDGE_LOOP ( 'NONE', ( #114, #308, #68, #160 ) ) ;
#255 = EDGE_CURVE ( 'NONE', #177, #95, #55, .T. ) ;
#256 = DIRECTION ( 'NONE',  ( 0.0000000000000000000, 0.0000000000000000000, 1.000000000000000000 ) ) ;
#257 = DIRECTION ( 'NONE',  ( -1.000000000000000000, -0.0000000000000000000, -0.0000000000000000000 ) ) ;
#258 = ORIENTED_EDGE ( 'NONE', *, *, #178, .F. ) ;
#259 = DIRECTION ( 'NONE',  ( -0.0000000000000000000, -1.000000000000000000, -0.0000000000000000000 ) ) ;
#260 = ADVANCED_BREP_SHAPE_REPRESENTATION ( '6290176', ( #150, #317 ), #329 ) ;
#261 = CARTESIAN_POINT ( 'NONE',  ( -69.99999999999998600, 4.000000000000000000, 54.99999999999998600 ) ) ;
#262 = AXIS2_PLACEMENT_3D ( 'NONE', #229, #23, #168 ) ;
#263 = CARTESIAN_POINT ( 'NONE',  ( 66.99999999999998600, 4.000000000000000000, -55.00000000000001400 ) ) ;
#264 = CARTESIAN_POINT ( 'NONE',  ( 66.99999999999998600, 4.000000000000000000, 51.99999999999998600 ) ) ;
#265 = PLANE ( 'NONE',  #232 ) ;
#266 = CIRCLE ( 'NONE', #101, 3.000000000000002700 ) ;
#267 = DIRECTION ( 'NONE',  ( 0.0000000000000000000, -1.000000000000000000, 0.0000000000000000000 ) ) ;
#268 = CARTESIAN_POINT ( 'NONE',  ( -66.99999999999998600, 4.000000000000000000, 51.99999999999998600 ) ) ;
#269 = ORIENTED_EDGE ( 'NONE', *, *, #293, .F. ) ;
#270 = CLOSED_SHELL ( 'NONE', ( #45, #39, #70, #272, #306, #316, #296, #192, #284, #154 ) ) ;
#271 = CARTESIAN_POINT ( 'NONE',  ( 66.99999999999998600, 4.000000000000000000, 51.99999999999998600 ) ) ;
#272 = ADVANCED_FACE ( 'NONE', ( #226 ), #152, .F. ) ;
#273 = VECTOR ( 'NONE', #92, 1000.000000000000000 ) ;
#274 = EDGE_CURVE ( 'NONE', #79, #91, #211, .T. ) ;
#275 = LINE ( 'NONE', #315, #204 ) ;
#276 = EDGE_LOOP ( 'NONE', ( #65, #155, #15, #183 ) ) ;
#277 = LINE ( 'NONE', #209, #41 ) ;
#278 = PRESENTATION_STYLE_ASSIGNMENT (( #172 ) ) ;
#279 = CIRCLE ( 'NONE', #131, 3.000000000000002700 ) ;
#280 = PRESENTATION_LAYER_ASSIGNMENT (  '', '', ( #342 ) ) ;
#281 = DIRECTION ( 'NONE',  ( -0.0000000000000000000, 1.000000000000000000, -0.0000000000000000000 ) ) ;
#282 = ORIENTED_EDGE ( 'NONE', *, *, #241, .T. ) ;
#283 = CARTESIAN_POINT ( 'NONE',  ( -70.00000000000001400, 4.000000000000000000, -55.00000000000001400 ) ) ;
#284 = ADVANCED_FACE ( 'NONE', ( #216 ), #206, .T. ) ;
#285 = DIRECTION ( 'NONE',  ( 1.000000000000000000, 0.0000000000000000000, -2.523234146875356000E-016 ) ) ;
#286 = DIRECTION ( 'NONE',  ( 2.523234146875356000E-016, 0.0000000000000000000, 1.000000000000000000 ) ) ;
#287 =( NAMED_UNIT ( * ) PLANE_ANGLE_UNIT ( ) SI_UNIT ( $, .RADIAN. ) );
#288 = ORIENTED_EDGE ( 'NONE', *, *, #88, .T. ) ;
#289 = CIRCLE ( 'NONE', #208, 3.000000000000002700 ) ;
#290 = CARTESIAN_POINT ( 'NONE',  ( 66.99999999999998600, 0.0000000000000000000, -55.00000000000001400 ) ) ;
#291 = CARTESIAN_POINT ( 'NONE',  ( 69.99999999999998600, 0.0000000000000000000, -52.00000000000001400 ) ) ;
#292 = VERTEX_POINT ( 'NONE', #291 ) ;
#293 = EDGE_CURVE ( 'NONE', #91, #95, #275, .T. ) ;
#294 = DIRECTION ( 'NONE',  ( 0.0000000000000000000, 0.0000000000000000000, -1.000000000000000000 ) ) ;
#295 = DIRECTION ( 'NONE',  ( 0.0000000000000000000, -1.000000000000000000, 0.0000000000000000000 ) ) ;
#296 = ADVANCED_FACE ( 'NONE', ( #215 ), #199, .T. ) ;
#297 = ORIENTED_EDGE ( 'NONE', *, *, #2, .F. ) ;
#298 = APPLICATION_CONTEXT ( 'automotive_design' ) ;
#299 = DIRECTION ( 'NONE',  ( 0.0000000000000000000, 0.0000000000000000000, -1.000000000000000000 ) ) ;
#300 = AXIS2_PLACEMENT_3D ( 'NONE', #238, #126, #256 ) ;
#301 = LINE ( 'NONE', #148, #245 ) ;
#302 = VERTEX_POINT ( 'NONE', #247 ) ;
#303 = PRODUCT_RELATED_PRODUCT_CATEGORY ( 'part', '', ( #151 ) ) ;
#304 = DIRECTION ( 'NONE',  ( 0.0000000000000000000, -1.000000000000000000, 0.0000000000000000000 ) ) ;
#305 = EDGE_CURVE ( 'NONE', #60, #237, #1, .T. ) ;
#306 = ADVANCED_FACE ( 'NONE', ( #210 ), #233, .T. ) ;
#307 = PRODUCT_DEFINITION_FORMATION_WITH_SPECIFIED_SOURCE ( 'ANY', '', #151, .NOT_KNOWN. ) ;
#308 = ORIENTED_EDGE ( 'NONE', *, *, #89, .T. ) ;
#309 = DIRECTION ( 'NONE',  ( 0.0000000000000000000, 1.000000000000000000, 0.0000000000000000000 ) ) ;
#310 = DIRECTION ( 'NONE',  ( 0.0000000000000000000, -1.000000000000000000, 0.0000000000000000000 ) ) ;
#311 = DIRECTION ( 'NONE',  ( 0.0000000000000000000, 0.0000000000000000000, -1.000000000000000000 ) ) ;
#312 =( LENGTH_UNIT ( ) NAMED_UNIT ( * ) SI_UNIT ( .MILLI., .METRE. ) );
#313 = PRODUCT_DEFINITION ( 'UNKNOWN', '', #307, #14 ) ;
#314 = VERTEX_POINT ( 'NONE', #230 ) ;
#315 = CARTESIAN_POINT ( 'NONE',  ( -69.99999999999998600, 4.000000000000000000, 51.99999999999998600 ) ) ;
#316 = ADVANCED_FACE ( 'NONE', ( #203 ), #184, .F. ) ;
#317 = AXIS2_PLACEMENT_3D ( 'NONE', #43, #22, #10 ) ;
#318 = CARTESIAN_POINT ( 'NONE',  ( -67.00000000000001400, 4.000000000000000000, -55.00000000000001400 ) ) ;
#319 = DIRECTION ( 'NONE',  ( 1.000000000000000000, 0.0000000000000000000, 0.0000000000000000000 ) ) ;
#320 = ORIENTED_EDGE ( 'NONE', *, *, #135, .T. ) ;
#321 = UNCERTAINTY_MEASURE_WITH_UNIT (LENGTH_MEASURE( 1.000000000000000100E-005 ), #112, 'distance_accuracy_value', 'NONE');
#322 = AXIS2_PLACEMENT_3D ( 'NONE', #268, #231, #27 ) ;
#323 = ORIENTED_EDGE ( 'NONE', *, *, #69, .T. ) ;
#324 = DIRECTION ( 'NONE',  ( 0.0000000000000000000, -1.000000000000000000, 0.0000000000000000000 ) ) ;
#325 = EDGE_CURVE ( 'NONE', #110, #132, #194, .T. ) ;
#326 = DIRECTION ( 'NONE',  ( -1.000000000000000000, 0.0000000000000000000, -0.0000000000000000000 ) ) ;
#327 = VERTEX_POINT ( 'NONE', #157 ) ;
#328 = ORIENTED_EDGE ( 'NONE', *, *, #325, .T. ) ;
#329 =( GEOMETRIC_REPRESENTATION_CONTEXT ( 3 ) GLOBAL_UNCERTAINTY_ASSIGNED_CONTEXT ( ( #321 ) ) GLOBAL_UNIT_ASSIGNED_CONTEXT ( ( #112, #109, #100 ) ) REPRESENTATION_CONTEXT ( 'NONE', 'WORKASPACE' ) );
#330 = VERTEX_POINT ( 'NONE', #146 ) ;
#331 = DIRECTION ( 'NONE',  ( 0.0000000000000000000, 0.0000000000000000000, 1.000000000000000000 ) ) ;
#332 = CARTESIAN_POINT ( 'NONE',  ( -66.99999999999998600, 4.000000000000000000, 54.99999999999998600 ) ) ;
#333 = DIRECTION ( 'NONE',  ( 2.523234146875356000E-016, 0.0000000000000000000, 1.000000000000000000 ) ) ;
#334 = ORIENTED_EDGE ( 'NONE', *, *, #305, .T. ) ;
#335 = AXIS2_PLACEMENT_3D ( 'NONE', #196, #181, #165 ) ;
#336 = CARTESIAN_POINT ( 'NONE',  ( -67.00000000000001400, 0.0000000000000000000, -52.00000000000001400 ) ) ;
#337 = CARTESIAN_POINT ( 'NONE',  ( -70.00000000000001400, 0.0000000000000000000, -55.00000000000001400 ) ) ;
#338 = DIRECTION ( 'NONE',  ( 0.0000000000000000000, 0.0000000000000000000, -1.000000000000000000 ) ) ;
#339 = FILL_AREA_STYLE ('',( #76 ) ) ;
#340 = LINE ( 'NONE', #332, #224 ) ;
#341 = CARTESIAN_POINT ( 'NONE',  ( 66.99999999999998600, 0.0000000000000000000, 51.99999999999998600 ) ) ;
#342 = STYLED_ITEM ( 'NONE', ( #167 ), #260 ) ;
ENDSEC;
END-ISO-10303-21;
