ISO-10303-21;
HEADER;
FILE_DESCRIPTION (( 'STEP AP214' ),
    '1' );
FILE_NAME ('3141306.STP',
    '2018-03-27T12:46:42',
    ( '' ),
    ( '' ),
    'SwSTEP 2.0',
    'SolidWorks 2016',
    '' );
FILE_SCHEMA (( 'AUTOMOTIVE_DESIGN' ));
ENDSEC;

DATA;
#1 =( NAMED_UNIT ( * ) SI_UNIT ( $, .STERADIAN. ) SOLID_ANGLE_UNIT ( ) );
#2 = AXIS2_PLACEMENT_3D ( 'NONE', #102, #32, #125 ) ;
#3 = PRESENTATION_STYLE_ASSIGNMENT (( #78 ) ) ;
#4 = AXIS2_PLACEMENT_3D ( 'NONE', #97, #70, #19 ) ;
#5 = LINE ( 'NONE', #65, #101 ) ;
#6 = DIRECTION ( 'NONE',  ( 0.0000000000000000000, 1.000000000000000000, 0.0000000000000000000 ) ) ;
#7 = LINE ( 'NONE', #115, #75 ) ;
#8 = STYLED_ITEM ( 'NONE', ( #68 ), #82 ) ;
#9 =( NAMED_UNIT ( * ) PLANE_ANGLE_UNIT ( ) SI_UNIT ( $, .RADIAN. ) );
#10 = APPLICATION_CONTEXT ( 'automotive_design' ) ;
#11 = PRODUCT_CONTEXT ( 'NONE', #10, 'mechanical' ) ;
#12 = VERTEX_POINT ( 'NONE', #124 ) ;
#13 = EDGE_CURVE ( 'NONE', #45, #105, #41, .T. ) ;
#14 = CARTESIAN_POINT ( 'NONE',  ( 0.0000000000000000000, 1000.000000000000000, 0.0000000000000000000 ) ) ;
#15 = PRESENTATION_LAYER_ASSIGNMENT (  '', '', ( #8 ) ) ;
#16 = FACE_OUTER_BOUND ( 'NONE', #100, .T. ) ;
#17 = ORIENTED_EDGE ( 'NONE', *, *, #72, .T. ) ;
#18 = AXIS2_PLACEMENT_3D ( 'NONE', #31, #36, #123 ) ;
#19 = DIRECTION ( 'NONE',  ( 0.0000000000000000000, 0.0000000000000000000, 1.000000000000000000 ) ) ;
#20 = AXIS2_PLACEMENT_3D ( 'NONE', #86, #90, #35 ) ;
#21 = APPLICATION_PROTOCOL_DEFINITION ( 'draft international standard', 'automotive_design', 1998, #69 ) ;
#22 = APPLICATION_PROTOCOL_DEFINITION ( 'draft international standard', 'automotive_design', 1998, #10 ) ;
#23 = SHAPE_DEFINITION_REPRESENTATION ( #106, #114 ) ;
#24 = ORIENTED_EDGE ( 'NONE', *, *, #13, .F. ) ;
#25 = DIRECTION ( 'NONE',  ( 0.0000000000000000000, 1.000000000000000000, 0.0000000000000000000 ) ) ;
#26 = UNCERTAINTY_MEASURE_WITH_UNIT (LENGTH_MEASURE( 1.000000000000000100E-005 ), #48, 'distance_accuracy_value', 'NONE');
#27 = CIRCLE ( 'NONE', #4, 6.000000000000000900 ) ;
#28 = CIRCLE ( 'NONE', #20, 6.000000000000000900 ) ;
#29 = CARTESIAN_POINT ( 'NONE',  ( 0.0000000000000000000, 1000.000000000000000, 0.0000000000000000000 ) ) ;
#30 = AXIS2_PLACEMENT_3D ( 'NONE', #14, #44, #130 ) ;
#31 = CARTESIAN_POINT ( 'NONE',  ( 0.0000000000000000000, 0.0000000000000000000, 0.0000000000000000000 ) ) ;
#32 = DIRECTION ( 'NONE',  ( 0.0000000000000000000, 1.000000000000000000, 0.0000000000000000000 ) ) ;
#33 = FACE_OUTER_BOUND ( 'NONE', #116, .T. ) ;
#34 = CARTESIAN_POINT ( 'NONE',  ( 7.347880794884120700E-016, 1000.000000000000000, 6.000000000000000900 ) ) ;
#35 = DIRECTION ( 'NONE',  ( 0.0000000000000000000, 0.0000000000000000000, 1.000000000000000000 ) ) ;
#36 = DIRECTION ( 'NONE',  ( 0.0000000000000000000, 0.0000000000000000000, 1.000000000000000000 ) ) ;
#37 = PRODUCT_RELATED_PRODUCT_CATEGORY ( 'part', '', ( #60 ) ) ;
#38 = ORIENTED_EDGE ( 'NONE', *, *, #95, .T. ) ;
#39 = UNCERTAINTY_MEASURE_WITH_UNIT (LENGTH_MEASURE( 1.000000000000000100E-005 ), #49, 'distance_accuracy_value', 'NONE');
#40 = AXIS2_PLACEMENT_3D ( 'NONE', #85, #135, #56 ) ;
#41 = CIRCLE ( 'NONE', #89, 6.000000000000000900 ) ;
#42 = ORIENTED_EDGE ( 'NONE', *, *, #95, .F. ) ;
#43 = EDGE_CURVE ( 'NONE', #84, #12, #131, .T. ) ;
#44 = DIRECTION ( 'NONE',  ( -0.0000000000000000000, -1.000000000000000000, -0.0000000000000000000 ) ) ;
#45 = VERTEX_POINT ( 'NONE', #113 ) ;
#46 = COLOUR_RGB ( '',0.7529411764705882200, 0.7529411764705882200, 0.7529411764705882200 ) ;
#47 = STYLED_ITEM ( 'NONE', ( #3 ), #114 ) ;
#48 =( LENGTH_UNIT ( ) NAMED_UNIT ( * ) SI_UNIT ( .MILLI., .METRE. ) );
#49 =( LENGTH_UNIT ( ) NAMED_UNIT ( * ) SI_UNIT ( .MILLI., .METRE. ) );
#50 = SURFACE_STYLE_FILL_AREA ( #92 ) ;
#51 = SURFACE_SIDE_STYLE ('',( #59 ) ) ;
#52 = PLANE ( 'NONE',  #129 ) ;
#53 = DIRECTION ( 'NONE',  ( 0.0000000000000000000, 1.000000000000000000, 0.0000000000000000000 ) ) ;
#54 =( GEOMETRIC_REPRESENTATION_CONTEXT ( 3 ) GLOBAL_UNCERTAINTY_ASSIGNED_CONTEXT ( ( #73 ) ) GLOBAL_UNIT_ASSIGNED_CONTEXT ( ( #109, #61, #1 ) ) REPRESENTATION_CONTEXT ( 'NONE', 'WORKASPACE' ) );
#55 = PRODUCT_DEFINITION_CONTEXT ( 'detailed design', #69, 'design' ) ;
#56 = DIRECTION ( 'NONE',  ( 0.0000000000000000000, 0.0000000000000000000, -1.000000000000000000 ) ) ;
#57 = PRODUCT_DEFINITION_FORMATION_WITH_SPECIFIED_SOURCE ( 'ANY', '', #60, .NOT_KNOWN. ) ;
#58 = FILL_AREA_STYLE ('',( #126 ) ) ;
#59 = SURFACE_STYLE_FILL_AREA ( #58 ) ;
#60 = PRODUCT ( '3141306', '3141306', '', ( #11 ) ) ;
#61 =( NAMED_UNIT ( * ) PLANE_ANGLE_UNIT ( ) SI_UNIT ( $, .RADIAN. ) );
#62 = DIRECTION ( 'NONE',  ( -0.0000000000000000000, -1.000000000000000000, -0.0000000000000000000 ) ) ;
#63 = PLANE ( 'NONE',  #2 ) ;
#64 = ORIENTED_EDGE ( 'NONE', *, *, #121, .T. ) ;
#65 = CARTESIAN_POINT ( 'NONE',  ( 0.0000000000000000000, 1000.000000000000000, -6.000000000000000900 ) ) ;
#66 = EDGE_LOOP ( 'NONE', ( #133, #98, #38, #136 ) ) ;
#67 = CYLINDRICAL_SURFACE ( 'NONE', #30, 6.000000000000000900 ) ;
#68 = PRESENTATION_STYLE_ASSIGNMENT (( #139 ) ) ;
#69 = APPLICATION_CONTEXT ( 'automotive_design' ) ;
#70 = DIRECTION ( 'NONE',  ( 0.0000000000000000000, 1.000000000000000000, 0.0000000000000000000 ) ) ;
#71 = DIRECTION ( 'NONE',  ( 0.0000000000000000000, -0.0000000000000000000, 1.000000000000000000 ) ) ;
#72 = EDGE_CURVE ( 'NONE', #45, #84, #5, .T. ) ;
#73 = UNCERTAINTY_MEASURE_WITH_UNIT (LENGTH_MEASURE( 1.000000000000000100E-005 ), #109, 'distance_accuracy_value', 'NONE');
#74 = DIRECTION ( 'NONE',  ( 0.0000000000000000000, 0.0000000000000000000, 1.000000000000000000 ) ) ;
#75 = VECTOR ( 'NONE', #62, 1000.000000000000000 ) ;
#76 = CARTESIAN_POINT ( 'NONE',  ( 0.0000000000000000000, 1000.000000000000000, 0.0000000000000000000 ) ) ;
#77 =( NAMED_UNIT ( * ) SI_UNIT ( $, .STERADIAN. ) SOLID_ANGLE_UNIT ( ) );
#78 = SURFACE_STYLE_USAGE ( .BOTH. , #112 ) ;
#79 = PRODUCT_DEFINITION ( 'UNKNOWN', '', #57, #55 ) ;
#80 =( NAMED_UNIT ( * ) SI_UNIT ( $, .STERADIAN. ) SOLID_ANGLE_UNIT ( ) );
#81 =( GEOMETRIC_REPRESENTATION_CONTEXT ( 3 ) GLOBAL_UNCERTAINTY_ASSIGNED_CONTEXT ( ( #39 ) ) GLOBAL_UNIT_ASSIGNED_CONTEXT ( ( #49, #122, #80 ) ) REPRESENTATION_CONTEXT ( 'NONE', 'WORKASPACE' ) );
#82 = MANIFOLD_SOLID_BREP ( 'Aufsatz-Linear austragen1', #99 ) ;
#83 = DIRECTION ( 'NONE',  ( 0.0000000000000000000, 0.0000000000000000000, 1.000000000000000000 ) ) ;
#84 = VERTEX_POINT ( 'NONE', #127 ) ;
#85 = CARTESIAN_POINT ( 'NONE',  ( 0.0000000000000000000, 1000.000000000000000, 0.0000000000000000000 ) ) ;
#86 = CARTESIAN_POINT ( 'NONE',  ( 0.0000000000000000000, 1000.000000000000000, 0.0000000000000000000 ) ) ;
#87 = ADVANCED_FACE ( 'NONE', ( #137 ), #107, .T. ) ;
#88 = ADVANCED_FACE ( 'NONE', ( #91 ), #67, .T. ) ;
#89 = AXIS2_PLACEMENT_3D ( 'NONE', #29, #53, #83 ) ;
#90 = DIRECTION ( 'NONE',  ( 0.0000000000000000000, 1.000000000000000000, 0.0000000000000000000 ) ) ;
#91 = FACE_OUTER_BOUND ( 'NONE', #93, .T. ) ;
#92 = FILL_AREA_STYLE ('',( #111 ) ) ;
#93 = EDGE_LOOP ( 'NONE', ( #128, #24, #17, #94 ) ) ;
#94 = ORIENTED_EDGE ( 'NONE', *, *, #43, .T. ) ;
#95 = EDGE_CURVE ( 'NONE', #12, #84, #27, .T. ) ;
#96 = EDGE_CURVE ( 'NONE', #105, #12, #7, .T. ) ;
#97 = CARTESIAN_POINT ( 'NONE',  ( 0.0000000000000000000, 0.0000000000000000000, 0.0000000000000000000 ) ) ;
#98 = ORIENTED_EDGE ( 'NONE', *, *, #96, .T. ) ;
#99 = CLOSED_SHELL ( 'NONE', ( #87, #88, #103, #132 ) ) ;
#100 = EDGE_LOOP ( 'NONE', ( #140, #64 ) ) ;
#101 = VECTOR ( 'NONE', #119, 1000.000000000000000 ) ;
#102 = CARTESIAN_POINT ( 'NONE',  ( 0.0000000000000000000, 0.0000000000000000000, 0.0000000000000000000 ) ) ;
#103 = ADVANCED_FACE ( 'NONE', ( #16 ), #52, .T. ) ;
#104 = AXIS2_PLACEMENT_3D ( 'NONE', #117, #25, #74 ) ;
#105 = VERTEX_POINT ( 'NONE', #34 ) ;
#106 = PRODUCT_DEFINITION_SHAPE ( 'NONE', 'NONE',  #79 ) ;
#107 = CYLINDRICAL_SURFACE ( 'NONE', #40, 6.000000000000000900 ) ;
#108 = MECHANICAL_DESIGN_GEOMETRIC_PRESENTATION_REPRESENTATION (  '', ( #8 ), #81 ) ;
#109 =( LENGTH_UNIT ( ) NAMED_UNIT ( * ) SI_UNIT ( .MILLI., .METRE. ) );
#110 = COLOUR_RGB ( '',0.7529411764705882200, 0.7529411764705882200, 0.7529411764705882200 ) ;
#111 = FILL_AREA_STYLE_COLOUR ( '', #46 ) ;
#112 = SURFACE_SIDE_STYLE ('',( #50 ) ) ;
#113 = CARTESIAN_POINT ( 'NONE',  ( 0.0000000000000000000, 1000.000000000000000, -6.000000000000000900 ) ) ;
#114 = ADVANCED_BREP_SHAPE_REPRESENTATION ( '3141306', ( #82, #18 ), #120 ) ;
#115 = CARTESIAN_POINT ( 'NONE',  ( 7.347880794884120700E-016, 1000.000000000000000, 6.000000000000000900 ) ) ;
#116 = EDGE_LOOP ( 'NONE', ( #134, #42 ) ) ;
#117 = CARTESIAN_POINT ( 'NONE',  ( 0.0000000000000000000, 0.0000000000000000000, 0.0000000000000000000 ) ) ;
#118 = PRESENTATION_LAYER_ASSIGNMENT (  '', '', ( #47 ) ) ;
#119 = DIRECTION ( 'NONE',  ( -0.0000000000000000000, -1.000000000000000000, -0.0000000000000000000 ) ) ;
#120 =( GEOMETRIC_REPRESENTATION_CONTEXT ( 3 ) GLOBAL_UNCERTAINTY_ASSIGNED_CONTEXT ( ( #26 ) ) GLOBAL_UNIT_ASSIGNED_CONTEXT ( ( #48, #9, #77 ) ) REPRESENTATION_CONTEXT ( 'NONE', 'WORKASPACE' ) );
#121 = EDGE_CURVE ( 'NONE', #105, #45, #28, .T. ) ;
#122 =( NAMED_UNIT ( * ) PLANE_ANGLE_UNIT ( ) SI_UNIT ( $, .RADIAN. ) );
#123 = DIRECTION ( 'NONE',  ( 1.000000000000000000, 0.0000000000000000000, 0.0000000000000000000 ) ) ;
#124 = CARTESIAN_POINT ( 'NONE',  ( 7.347880794884120700E-016, 0.0000000000000000000, 6.000000000000000900 ) ) ;
#125 = DIRECTION ( 'NONE',  ( 0.0000000000000000000, -0.0000000000000000000, 1.000000000000000000 ) ) ;
#126 = FILL_AREA_STYLE_COLOUR ( '', #110 ) ;
#127 = CARTESIAN_POINT ( 'NONE',  ( 0.0000000000000000000, 0.0000000000000000000, -6.000000000000000900 ) ) ;
#128 = ORIENTED_EDGE ( 'NONE', *, *, #96, .F. ) ;
#129 = AXIS2_PLACEMENT_3D ( 'NONE', #76, #6, #71 ) ;
#130 = DIRECTION ( 'NONE',  ( 0.0000000000000000000, 0.0000000000000000000, -1.000000000000000000 ) ) ;
#131 = CIRCLE ( 'NONE', #104, 6.000000000000000900 ) ;
#132 = ADVANCED_FACE ( 'NONE', ( #33 ), #63, .F. ) ;
#133 = ORIENTED_EDGE ( 'NONE', *, *, #121, .F. ) ;
#134 = ORIENTED_EDGE ( 'NONE', *, *, #43, .F. ) ;
#135 = DIRECTION ( 'NONE',  ( -0.0000000000000000000, -1.000000000000000000, -0.0000000000000000000 ) ) ;
#136 = ORIENTED_EDGE ( 'NONE', *, *, #72, .F. ) ;
#137 = FACE_OUTER_BOUND ( 'NONE', #66, .T. ) ;
#138 = MECHANICAL_DESIGN_GEOMETRIC_PRESENTATION_REPRESENTATION (  '', ( #47 ), #54 ) ;
#139 = SURFACE_STYLE_USAGE ( .BOTH. , #51 ) ;
#140 = ORIENTED_EDGE ( 'NONE', *, *, #13, .T. ) ;
ENDSEC;
END-ISO-10303-21;
