ISO-10303-21;
HEADER;
FILE_DESCRIPTION (( 'STEP AP214' ),
    '1' );
FILE_NAME ('2046773.stp',
    '2024-05-02T14:53:33',
    ( '' ),
    ( '' ),
    'SwSTEP 2.0',
    'SolidWorks 2022',
    '' );
FILE_SCHEMA (( 'AUTOMOTIVE_DESIGN' ));
ENDSEC;

DATA;
#1 = SURFACE_STYLE_USAGE ( .BOTH. , #306 ) ;
#2 = PRESENTATION_LAYER_ASSIGNMENT (  '', '', ( #113 ) ) ;
#3 = FACE_OUTER_BOUND ( 'NONE', #283, .T. ) ;
#4 = MECHANICAL_DESIGN_GEOMETRIC_PRESENTATION_REPRESENTATION (  '', ( #160 ), #331 ) ;
#5 = DIRECTION ( 'NONE',  ( -1.000000000000000000, -0.000000000000000000, -0.000000000000000000 ) ) ;
#6 = ORIENTED_EDGE ( 'NONE', *, *, #45, .F. ) ;
#7 = UNCERTAINTY_MEASURE_WITH_UNIT (LENGTH_MEASURE( 1.000000000000000082E-05 ), #64, 'distance_accuracy_value', 'NONE');
#8 = DIRECTION ( 'NONE',  ( -1.000000000000000000, -0.000000000000000000, -0.000000000000000000 ) ) ;
#9 = ADVANCED_BREP_SHAPE_REPRESENTATION ( '2046773', ( #104, #49 ), #272 ) ;
#10 =( GEOMETRIC_REPRESENTATION_CONTEXT ( 3 ) GLOBAL_UNCERTAINTY_ASSIGNED_CONTEXT ( ( #195 ) ) GLOBAL_UNIT_ASSIGNED_CONTEXT ( ( #190, #56, #166 ) ) REPRESENTATION_CONTEXT ( 'NONE', 'WORKASPACE' ) );
#11 = DIRECTION ( 'NONE',  ( -1.000000000000000000, -0.000000000000000000, -0.000000000000000000 ) ) ;
#12 = DIRECTION ( 'NONE',  ( 1.000000000000000000, 0.000000000000000000, 0.000000000000000000 ) ) ;
#13 = DIRECTION ( 'NONE',  ( 1.000000000000000000, 0.000000000000000000, 0.000000000000000000 ) ) ;
#14 = ADVANCED_FACE ( 'NONE', ( #290, #86 ), #26, .F. ) ;
#15 = FILL_AREA_STYLE ('',( #315 ) ) ;
#16 = SURFACE_SIDE_STYLE ('',( #122 ) ) ;
#17 = SURFACE_SIDE_STYLE ('',( #207 ) ) ;
#18 = ORIENTED_EDGE ( 'NONE', *, *, #203, .F. ) ;
#19 = PRESENTATION_LAYER_ASSIGNMENT (  '', '', ( #107 ) ) ;
#20 = FILL_AREA_STYLE ('',( #184 ) ) ;
#21 = ORIENTED_EDGE ( 'NONE', *, *, #232, .T. ) ;
#22 = DIRECTION ( 'NONE',  ( 0.000000000000000000, 0.000000000000000000, 1.000000000000000000 ) ) ;
#23 = ORIENTED_EDGE ( 'NONE', *, *, #316, .F. ) ;
#24 = EDGE_LOOP ( 'NONE', ( #6 ) ) ;
#25 = STYLED_ITEM ( 'NONE', ( #295 ), #91 ) ;
#26 = CYLINDRICAL_SURFACE ( 'NONE', #114, 16.10000000000000142 ) ;
#27 =( LENGTH_UNIT ( ) NAMED_UNIT ( * ) SI_UNIT ( .MILLI., .METRE. ) );
#28 = FACE_OUTER_BOUND ( 'NONE', #323, .T. ) ;
#29 = VERTEX_POINT ( 'NONE', #309 ) ;
#30 = TOROIDAL_SURFACE ( 'NONE', #329, 17.75000000000000355, 1.000000000000000000 ) ;
#31 = PRESENTATION_STYLE_ASSIGNMENT (( #194 ) ) ;
#32 =( GEOMETRIC_REPRESENTATION_CONTEXT ( 3 ) GLOBAL_UNCERTAINTY_ASSIGNED_CONTEXT ( ( #71 ) ) GLOBAL_UNIT_ASSIGNED_CONTEXT ( ( #226, #65, #178 ) ) REPRESENTATION_CONTEXT ( 'NONE', 'WORKASPACE' ) );
#33 = CARTESIAN_POINT ( 'NONE',  ( -35.00000000000000000, 0.000000000000000000, 17.34999999999999787 ) ) ;
#34 =( NAMED_UNIT ( * ) PLANE_ANGLE_UNIT ( ) SI_UNIT ( $, .RADIAN. ) );
#35 = APPLICATION_PROTOCOL_DEFINITION ( 'draft international standard', 'automotive_design', 1998, #129 ) ;
#36 = EDGE_CURVE ( 'NONE', #29, #29, #76, .T. ) ;
#37 = CARTESIAN_POINT ( 'NONE',  ( -35.00000000000000000, 17.34999999999999787, 0.000000000000000000 ) ) ;
#38 = CYLINDRICAL_SURFACE ( 'NONE', #54, 17.34999999999999787 ) ;
#39 = COLOUR_RGB ( '',1.000000000000000000, 0.7607843137254901578, 0.6549019607843137303 ) ;
#40 =( NAMED_UNIT ( * ) PLANE_ANGLE_UNIT ( ) SI_UNIT ( $, .RADIAN. ) );
#41 = FACE_OUTER_BOUND ( 'NONE', #163, .T. ) ;
#42 = UNCERTAINTY_MEASURE_WITH_UNIT (LENGTH_MEASURE( 1.000000000000000082E-05 ), #197, 'distance_accuracy_value', 'NONE');
#43 = FILL_AREA_STYLE_COLOUR ( '', #39 ) ;
#44 = MECHANICAL_DESIGN_GEOMETRIC_PRESENTATION_REPRESENTATION (  '', ( #314 ), #63 ) ;
#45 = EDGE_CURVE ( 'NONE', #196, #196, #165, .T. ) ;
#46 = SURFACE_SIDE_STYLE ('',( #277 ) ) ;
#47 = SURFACE_SIDE_STYLE ('',( #279 ) ) ;
#48 = ADVANCED_FACE ( 'NONE', ( #28, #3 ), #108, .T. ) ;
#49 = AXIS2_PLACEMENT_3D ( 'NONE', #148, #249, #12 ) ;
#50 =( LENGTH_UNIT ( ) NAMED_UNIT ( * ) SI_UNIT ( .MILLI., .METRE. ) );
#51 = EDGE_LOOP ( 'NONE', ( #82 ) ) ;
#52 = CARTESIAN_POINT ( 'NONE',  ( 35.00000000000000000, 0.000000000000000000, 0.000000000000000000 ) ) ;
#53 =( NAMED_UNIT ( * ) SI_UNIT ( $, .STERADIAN. ) SOLID_ANGLE_UNIT ( ) );
#54 = AXIS2_PLACEMENT_3D ( 'NONE', #100, #11, #121 ) ;
#55 = FACE_OUTER_BOUND ( 'NONE', #110, .T. ) ;
#56 =( NAMED_UNIT ( * ) PLANE_ANGLE_UNIT ( ) SI_UNIT ( $, .RADIAN. ) );
#57 = EDGE_CURVE ( 'NONE', #144, #144, #98, .T. ) ;
#58 = CARTESIAN_POINT ( 'NONE',  ( -1.529705854077838989, 0.000000000000000000, 0.000000000000000000 ) ) ;
#59 = DIRECTION ( 'NONE',  ( 0.000000000000000000, 0.000000000000000000, 1.000000000000000000 ) ) ;
#60 = DIRECTION ( 'NONE',  ( -1.000000000000000000, -0.000000000000000000, -0.000000000000000000 ) ) ;
#61 = CARTESIAN_POINT ( 'NONE',  ( -35.00000000000000000, 0.000000000000000000, 16.10000000000000142 ) ) ;
#62 = STYLED_ITEM ( 'NONE', ( #119 ), #48 ) ;
#63 =( GEOMETRIC_REPRESENTATION_CONTEXT ( 3 ) GLOBAL_UNCERTAINTY_ASSIGNED_CONTEXT ( ( #179 ) ) GLOBAL_UNIT_ASSIGNED_CONTEXT ( ( #50, #257, #77 ) ) REPRESENTATION_CONTEXT ( 'NONE', 'WORKASPACE' ) );
#64 =( LENGTH_UNIT ( ) NAMED_UNIT ( * ) SI_UNIT ( .MILLI., .METRE. ) );
#65 =( NAMED_UNIT ( * ) PLANE_ANGLE_UNIT ( ) SI_UNIT ( $, .RADIAN. ) );
#66 =( NAMED_UNIT ( * ) SI_UNIT ( $, .STERADIAN. ) SOLID_ANGLE_UNIT ( ) );
#67 =( NAMED_UNIT ( * ) PLANE_ANGLE_UNIT ( ) SI_UNIT ( $, .RADIAN. ) );
#68 = ADVANCED_FACE ( 'NONE', ( #55, #167 ), #38, .T. ) ;
#69 = PRESENTATION_STYLE_ASSIGNMENT (( #174 ) ) ;
#70 = APPLICATION_PROTOCOL_DEFINITION ( 'draft international standard', 'automotive_design', 1998, #78 ) ;
#71 = UNCERTAINTY_MEASURE_WITH_UNIT (LENGTH_MEASURE( 1.000000000000000082E-05 ), #226, 'distance_accuracy_value', 'NONE');
#72 = PRODUCT_CONTEXT ( 'NONE', #129, 'mechanical' ) ;
#73 = SURFACE_STYLE_USAGE ( .BOTH. , #229 ) ;
#74 = PLANE ( 'NONE',  #256 ) ;
#75 = PRESENTATION_LAYER_ASSIGNMENT (  '', '', ( #259 ) ) ;
#76 = CIRCLE ( 'NONE', #280, 16.10000000000000142 ) ;
#77 =( NAMED_UNIT ( * ) SI_UNIT ( $, .STERADIAN. ) SOLID_ANGLE_UNIT ( ) );
#78 = APPLICATION_CONTEXT ( 'automotive_design' ) ;
#79 = FACE_OUTER_BOUND ( 'NONE', #51, .T. ) ;
#80 = FILL_AREA_STYLE ('',( #300 ) ) ;
#81 = CLOSED_SHELL ( 'NONE', ( #180, #68, #91, #125, #48, #14, #269, #278 ) ) ;
#82 = ORIENTED_EDGE ( 'NONE', *, *, #316, .T. ) ;
#83 = DIRECTION ( 'NONE',  ( -1.000000000000000000, -0.000000000000000000, -0.000000000000000000 ) ) ;
#84 = ORIENTED_EDGE ( 'NONE', *, *, #304, .T. ) ;
#85 = DIRECTION ( 'NONE',  ( -1.000000000000000000, -0.000000000000000000, -0.000000000000000000 ) ) ;
#86 = FACE_OUTER_BOUND ( 'NONE', #130, .T. ) ;
#87 = CARTESIAN_POINT ( 'NONE',  ( 35.00000000000000000, 17.34999999999999787, 0.000000000000000000 ) ) ;
#88 = COLOUR_RGB ( '',0.7921568627450980005, 0.8196078431372548767, 0.9333333333333333481 ) ;
#89 = EDGE_LOOP ( 'NONE', ( #222 ) ) ;
#90 = DIRECTION ( 'NONE',  ( 0.000000000000000000, 0.000000000000000000, 1.000000000000000000 ) ) ;
#91 = ADVANCED_FACE ( 'NONE', ( #149, #41 ), #318, .F. ) ;
#92 =( GEOMETRIC_REPRESENTATION_CONTEXT ( 3 ) GLOBAL_UNCERTAINTY_ASSIGNED_CONTEXT ( ( #250 ) ) GLOBAL_UNIT_ASSIGNED_CONTEXT ( ( #326, #158, #253 ) ) REPRESENTATION_CONTEXT ( 'NONE', 'WORKASPACE' ) );
#93 = MECHANICAL_DESIGN_GEOMETRIC_PRESENTATION_REPRESENTATION (  '', ( #62 ), #143 ) ;
#94 = FILL_AREA_STYLE ('',( #248 ) ) ;
#95 = DIRECTION ( 'NONE',  ( 0.000000000000000000, 0.000000000000000000, -1.000000000000000000 ) ) ;
#96 =( NAMED_UNIT ( * ) SI_UNIT ( $, .STERADIAN. ) SOLID_ANGLE_UNIT ( ) );
#97 = AXIS2_PLACEMENT_3D ( 'NONE', #115, #219, #90 ) ;
#98 = CIRCLE ( 'NONE', #193, 16.10000000000000142 ) ;
#99 = SURFACE_SIDE_STYLE ('',( #151 ) ) ;
#100 = CARTESIAN_POINT ( 'NONE',  ( -17.47792894757627025, 0.000000000000000000, 0.000000000000000000 ) ) ;
#101 = FACE_OUTER_BOUND ( 'NONE', #282, .T. ) ;
#102 = AXIS2_PLACEMENT_3D ( 'NONE', #221, #140, #59 ) ;
#103 = STYLED_ITEM ( 'NONE', ( #69 ), #68 ) ;
#104 = MANIFOLD_SOLID_BREP ( 'Rotation-VA', #81 ) ;
#105 = DIRECTION ( 'NONE',  ( -1.000000000000000000, -0.000000000000000000, -0.000000000000000000 ) ) ;
#106 = ORIENTED_EDGE ( 'NONE', *, *, #232, .F. ) ;
#107 = STYLED_ITEM ( 'NONE', ( #328 ), #269 ) ;
#108 = TOROIDAL_SURFACE ( 'NONE', #258, 17.75000000000000355, 2.250000000000000444 ) ;
#109 = VERTEX_POINT ( 'NONE', #213 ) ;
#110 = EDGE_LOOP ( 'NONE', ( #106 ) ) ;
#111 = DIRECTION ( 'NONE',  ( 0.000000000000000000, 0.000000000000000000, 1.000000000000000000 ) ) ;
#112 = CARTESIAN_POINT ( 'NONE',  ( -0.9165151389911689872, 0.000000000000000000, 0.000000000000000000 ) ) ;
#113 = STYLED_ITEM ( 'NONE', ( #312 ), #278 ) ;
#114 = AXIS2_PLACEMENT_3D ( 'NONE', #266, #60, #217 ) ;
#115 = CARTESIAN_POINT ( 'NONE',  ( 0.9165151389911689872, 0.000000000000000000, 0.000000000000000000 ) ) ;
#116 = SURFACE_STYLE_FILL_AREA ( #245 ) ;
#117 = CARTESIAN_POINT ( 'NONE',  ( 35.00000000000000000, 0.000000000000000000, 16.10000000000000142 ) ) ;
#118 = EDGE_LOOP ( 'NONE', ( #255 ) ) ;
#119 = PRESENTATION_STYLE_ASSIGNMENT (( #145 ) ) ;
#120 = PRESENTATION_STYLE_ASSIGNMENT (( #201 ) ) ;
#121 = DIRECTION ( 'NONE',  ( 0.000000000000000000, 0.000000000000000000, 1.000000000000000000 ) ) ;
#122 = SURFACE_STYLE_FILL_AREA ( #296 ) ;
#123 = MECHANICAL_DESIGN_GEOMETRIC_PRESENTATION_REPRESENTATION (  '', ( #259 ), #92 ) ;
#124 = CYLINDRICAL_SURFACE ( 'NONE', #308, 16.10000000000000142 ) ;
#125 = ADVANCED_FACE ( 'NONE', ( #183, #101 ), #124, .F. ) ;
#126 = SURFACE_STYLE_USAGE ( .BOTH. , #16 ) ;
#127 = PRESENTATION_STYLE_ASSIGNMENT (( #235 ) ) ;
#128 = DIRECTION ( 'NONE',  ( -1.000000000000000000, -0.000000000000000000, -0.000000000000000000 ) ) ;
#129 = APPLICATION_CONTEXT ( 'automotive_design' ) ;
#130 = EDGE_LOOP ( 'NONE', ( #210 ) ) ;
#131 = CIRCLE ( 'NONE', #275, 16.10000000000000142 ) ;
#132 = AXIS2_PLACEMENT_3D ( 'NONE', #37, #13, #95 ) ;
#133 = CARTESIAN_POINT ( 'NONE',  ( -35.00000000000000000, 0.000000000000000000, 0.000000000000000000 ) ) ;
#134 = EDGE_LOOP ( 'NONE', ( #157 ) ) ;
#135 = CARTESIAN_POINT ( 'NONE',  ( 0.000000000000000000, 0.000000000000000000, 0.000000000000000000 ) ) ;
#136 = COLOUR_RGB ( '',1.000000000000000000, 0.7607843137254901578, 0.6549019607843137303 ) ;
#137 = PRESENTATION_LAYER_ASSIGNMENT (  '', '', ( #25 ) ) ;
#138 = DIRECTION ( 'NONE',  ( 0.000000000000000000, 0.000000000000000000, 1.000000000000000000 ) ) ;
#139 = PRODUCT_DEFINITION_FORMATION_WITH_SPECIFIED_SOURCE ( 'ANY', '', #227, .NOT_KNOWN. ) ;
#140 = DIRECTION ( 'NONE',  ( -1.000000000000000000, -0.000000000000000000, -0.000000000000000000 ) ) ;
#141 = FILL_AREA_STYLE_COLOUR ( '', #292 ) ;
#142 = DIRECTION ( 'NONE',  ( 0.000000000000000000, 0.000000000000000000, 1.000000000000000000 ) ) ;
#143 =( GEOMETRIC_REPRESENTATION_CONTEXT ( 3 ) GLOBAL_UNCERTAINTY_ASSIGNED_CONTEXT ( ( #42 ) ) GLOBAL_UNIT_ASSIGNED_CONTEXT ( ( #197, #34, #223 ) ) REPRESENTATION_CONTEXT ( 'NONE', 'WORKASPACE' ) );
#144 = VERTEX_POINT ( 'NONE', #117 ) ;
#145 = SURFACE_STYLE_USAGE ( .BOTH. , #305 ) ;
#146 = CARTESIAN_POINT ( 'NONE',  ( 35.00000000000000000, 0.000000000000000000, 17.34999999999999787 ) ) ;
#147 = SHAPE_DEFINITION_REPRESENTATION ( #301, #9 ) ;
#148 = CARTESIAN_POINT ( 'NONE',  ( 0.000000000000000000, 0.000000000000000000, 0.000000000000000000 ) ) ;
#149 = FACE_BOUND ( 'NONE', #159, .T. ) ;
#150 =( LENGTH_UNIT ( ) NAMED_UNIT ( * ) SI_UNIT ( .MILLI., .METRE. ) );
#151 = SURFACE_STYLE_FILL_AREA ( #15 ) ;
#152 =( NAMED_UNIT ( * ) SI_UNIT ( $, .STERADIAN. ) SOLID_ANGLE_UNIT ( ) );
#153 = FILL_AREA_STYLE ('',( #43 ) ) ;
#154 = ORIENTED_EDGE ( 'NONE', *, *, #36, .F. ) ;
#155 = PRESENTATION_LAYER_ASSIGNMENT (  '', '', ( #281 ) ) ;
#156 = PRODUCT_DEFINITION ( 'UNKNOWN', '', #139, #294 ) ;
#157 = ORIENTED_EDGE ( 'NONE', *, *, #57, .T. ) ;
#158 =( NAMED_UNIT ( * ) PLANE_ANGLE_UNIT ( ) SI_UNIT ( $, .RADIAN. ) );
#159 = EDGE_LOOP ( 'NONE', ( #18 ) ) ;
#160 = STYLED_ITEM ( 'NONE', ( #320 ), #104 ) ;
#161 = SURFACE_STYLE_USAGE ( .BOTH. , #47 ) ;
#162 = EDGE_LOOP ( 'NONE', ( #23 ) ) ;
#163 = EDGE_LOOP ( 'NONE', ( #21 ) ) ;
#164 = DIRECTION ( 'NONE',  ( -1.000000000000000000, -0.000000000000000000, -0.000000000000000000 ) ) ;
#165 = CIRCLE ( 'NONE', #247, 16.10000000000000142 ) ;
#166 =( NAMED_UNIT ( * ) SI_UNIT ( $, .STERADIAN. ) SOLID_ANGLE_UNIT ( ) );
#167 = FACE_OUTER_BOUND ( 'NONE', #214, .T. ) ;
#168 = DIRECTION ( 'NONE',  ( -0.000000000000000000, 0.000000000000000000, 1.000000000000000000 ) ) ;
#169 = DIRECTION ( 'NONE',  ( 0.000000000000000000, 0.000000000000000000, 1.000000000000000000 ) ) ;
#170 = FACE_OUTER_BOUND ( 'NONE', #162, .T. ) ;
#171 = DIRECTION ( 'NONE',  ( 0.000000000000000000, 0.000000000000000000, 1.000000000000000000 ) ) ;
#172 =( GEOMETRIC_REPRESENTATION_CONTEXT ( 3 ) GLOBAL_UNCERTAINTY_ASSIGNED_CONTEXT ( ( #230 ) ) GLOBAL_UNIT_ASSIGNED_CONTEXT ( ( #150, #67, #96 ) ) REPRESENTATION_CONTEXT ( 'NONE', 'WORKASPACE' ) );
#173 = UNCERTAINTY_MEASURE_WITH_UNIT (LENGTH_MEASURE( 1.000000000000000082E-05 ), #271, 'distance_accuracy_value', 'NONE');
#174 = SURFACE_STYLE_USAGE ( .BOTH. , #99 ) ;
#175 =( NAMED_UNIT ( * ) PLANE_ANGLE_UNIT ( ) SI_UNIT ( $, .RADIAN. ) );
#176 = CIRCLE ( 'NONE', #218, 17.34999999999999787 ) ;
#177 = PRESENTATION_LAYER_ASSIGNMENT (  '', '', ( #62 ) ) ;
#178 =( NAMED_UNIT ( * ) SI_UNIT ( $, .STERADIAN. ) SOLID_ANGLE_UNIT ( ) );
#179 = UNCERTAINTY_MEASURE_WITH_UNIT (LENGTH_MEASURE( 1.000000000000000082E-05 ), #50, 'distance_accuracy_value', 'NONE');
#180 = ADVANCED_FACE ( 'NONE', ( #299, #79 ), #30, .F. ) ;
#181 = MECHANICAL_DESIGN_GEOMETRIC_PRESENTATION_REPRESENTATION (  '', ( #113 ), #10 ) ;
#182 = STYLED_ITEM ( 'NONE', ( #31 ), #14 ) ;
#183 = FACE_OUTER_BOUND ( 'NONE', #24, .T. ) ;
#184 = FILL_AREA_STYLE_COLOUR ( '', #238 ) ;
#185 = CARTESIAN_POINT ( 'NONE',  ( -17.47792894757627025, 0.000000000000000000, 0.000000000000000000 ) ) ;
#186 = SURFACE_STYLE_USAGE ( .BOTH. , #46 ) ;
#187 = EDGE_LOOP ( 'NONE', ( #260 ) ) ;
#188 = CARTESIAN_POINT ( 'NONE',  ( 35.00000000000000000, 0.000000000000000000, 0.000000000000000000 ) ) ;
#189 = EDGE_LOOP ( 'NONE', ( #302 ) ) ;
#190 =( LENGTH_UNIT ( ) NAMED_UNIT ( * ) SI_UNIT ( .MILLI., .METRE. ) );
#191 = CARTESIAN_POINT ( 'NONE',  ( 0.000000000000000000, 0.000000000000000000, 0.000000000000000000 ) ) ;
#192 = PRESENTATION_LAYER_ASSIGNMENT (  '', '', ( #103 ) ) ;
#193 = AXIS2_PLACEMENT_3D ( 'NONE', #52, #85, #286 ) ;
#194 = SURFACE_STYLE_USAGE ( .BOTH. , #310 ) ;
#195 = UNCERTAINTY_MEASURE_WITH_UNIT (LENGTH_MEASURE( 1.000000000000000082E-05 ), #190, 'distance_accuracy_value', 'NONE');
#196 = VERTEX_POINT ( 'NONE', #332 ) ;
#197 =( LENGTH_UNIT ( ) NAMED_UNIT ( * ) SI_UNIT ( .MILLI., .METRE. ) );
#198 =( GEOMETRIC_REPRESENTATION_CONTEXT ( 3 ) GLOBAL_UNCERTAINTY_ASSIGNED_CONTEXT ( ( #311 ) ) GLOBAL_UNIT_ASSIGNED_CONTEXT ( ( #27, #270, #53 ) ) REPRESENTATION_CONTEXT ( 'NONE', 'WORKASPACE' ) );
#199 = PRESENTATION_LAYER_ASSIGNMENT (  '', '', ( #314 ) ) ;
#200 = SURFACE_SIDE_STYLE ('',( #317 ) ) ;
#201 = SURFACE_STYLE_USAGE ( .BOTH. , #200 ) ;
#202 = FILL_AREA_STYLE_COLOUR ( '', #225 ) ;
#203 = EDGE_CURVE ( 'NONE', #291, #291, #131, .T. ) ;
#204 =( LENGTH_UNIT ( ) NAMED_UNIT ( * ) SI_UNIT ( .MILLI., .METRE. ) );
#205 = DIRECTION ( 'NONE',  ( 0.000000000000000000, 0.000000000000000000, 1.000000000000000000 ) ) ;
#206 = PRESENTATION_STYLE_ASSIGNMENT (( #186 ) ) ;
#207 = SURFACE_STYLE_FILL_AREA ( #20 ) ;
#208 = FACE_OUTER_BOUND ( 'NONE', #118, .T. ) ;
#209 = DIRECTION ( 'NONE',  ( -1.000000000000000000, -0.000000000000000000, -0.000000000000000000 ) ) ;
#210 = ORIENTED_EDGE ( 'NONE', *, *, #36, .T. ) ;
#211 = MECHANICAL_DESIGN_GEOMETRIC_PRESENTATION_REPRESENTATION (  '', ( #107 ), #198 ) ;
#212 = MECHANICAL_DESIGN_GEOMETRIC_PRESENTATION_REPRESENTATION (  '', ( #182 ), #251 ) ;
#213 = CARTESIAN_POINT ( 'NONE',  ( 0.9165151389911689872, 0.000000000000000000, 17.35000000000000142 ) ) ;
#214 = EDGE_LOOP ( 'NONE', ( #84 ) ) ;
#215 = VERTEX_POINT ( 'NONE', #33 ) ;
#216 = FACE_OUTER_BOUND ( 'NONE', #189, .T. ) ;
#217 = DIRECTION ( 'NONE',  ( 0.000000000000000000, 0.000000000000000000, 1.000000000000000000 ) ) ;
#218 = AXIS2_PLACEMENT_3D ( 'NONE', #236, #105, #233 ) ;
#219 = DIRECTION ( 'NONE',  ( -1.000000000000000000, -0.000000000000000000, -0.000000000000000000 ) ) ;
#220 = FILL_AREA_STYLE_COLOUR ( '', #268 ) ;
#221 = CARTESIAN_POINT ( 'NONE',  ( -17.47792894757627025, 0.000000000000000000, 0.000000000000000000 ) ) ;
#222 = ORIENTED_EDGE ( 'NONE', *, *, #304, .F. ) ;
#223 =( NAMED_UNIT ( * ) SI_UNIT ( $, .STERADIAN. ) SOLID_ANGLE_UNIT ( ) );
#224 = CIRCLE ( 'NONE', #228, 17.34999999999999787 ) ;
#225 = COLOUR_RGB ( '',0.7921568627450980005, 0.8196078431372548767, 0.9333333333333333481 ) ;
#226 =( LENGTH_UNIT ( ) NAMED_UNIT ( * ) SI_UNIT ( .MILLI., .METRE. ) );
#227 = PRODUCT ( '2046773', '2046773', '', ( #72 ) ) ;
#228 = AXIS2_PLACEMENT_3D ( 'NONE', #188, #5, #142 ) ;
#229 = SURFACE_SIDE_STYLE ('',( #273 ) ) ;
#230 = UNCERTAINTY_MEASURE_WITH_UNIT (LENGTH_MEASURE( 1.000000000000000082E-05 ), #150, 'distance_accuracy_value', 'NONE');
#231 =( GEOMETRIC_REPRESENTATION_CONTEXT ( 3 ) GLOBAL_UNCERTAINTY_ASSIGNED_CONTEXT ( ( #7 ) ) GLOBAL_UNIT_ASSIGNED_CONTEXT ( ( #64, #175, #152 ) ) REPRESENTATION_CONTEXT ( 'NONE', 'WORKASPACE' ) );
#232 = EDGE_CURVE ( 'NONE', #215, #215, #176, .T. ) ;
#233 = DIRECTION ( 'NONE',  ( 0.000000000000000000, 0.000000000000000000, 1.000000000000000000 ) ) ;
#234 = MECHANICAL_DESIGN_GEOMETRIC_PRESENTATION_REPRESENTATION (  '', ( #25 ), #172 ) ;
#235 = SURFACE_STYLE_USAGE ( .BOTH. , #17 ) ;
#236 = CARTESIAN_POINT ( 'NONE',  ( -35.00000000000000000, 0.000000000000000000, 0.000000000000000000 ) ) ;
#237 = ORIENTED_EDGE ( 'NONE', *, *, #203, .T. ) ;
#238 = COLOUR_RGB ( '',1.000000000000000000, 0.7607843137254901578, 0.6549019607843137303 ) ;
#239 = CYLINDRICAL_SURFACE ( 'NONE', #102, 17.34999999999999787 ) ;
#240 =( LENGTH_UNIT ( ) NAMED_UNIT ( * ) SI_UNIT ( .MILLI., .METRE. ) );
#241 = CIRCLE ( 'NONE', #287, 17.35000000000000142 ) ;
#242 = PRESENTATION_LAYER_ASSIGNMENT (  '', '', ( #160 ) ) ;
#243 = ORIENTED_EDGE ( 'NONE', *, *, #45, .T. ) ;
#244 = CARTESIAN_POINT ( 'NONE',  ( -0.9165151389911689872, 0.000000000000000000, 17.35000000000000142 ) ) ;
#245 = FILL_AREA_STYLE ('',( #141 ) ) ;
#246 =( NAMED_UNIT ( * ) SI_UNIT ( $, .STERADIAN. ) SOLID_ANGLE_UNIT ( ) );
#247 = AXIS2_PLACEMENT_3D ( 'NONE', #58, #313, #169 ) ;
#248 = FILL_AREA_STYLE_COLOUR ( '', #88 ) ;
#249 = DIRECTION ( 'NONE',  ( 0.000000000000000000, 0.000000000000000000, 1.000000000000000000 ) ) ;
#250 = UNCERTAINTY_MEASURE_WITH_UNIT (LENGTH_MEASURE( 1.000000000000000082E-05 ), #326, 'distance_accuracy_value', 'NONE');
#251 =( GEOMETRIC_REPRESENTATION_CONTEXT ( 3 ) GLOBAL_UNCERTAINTY_ASSIGNED_CONTEXT ( ( #297 ) ) GLOBAL_UNIT_ASSIGNED_CONTEXT ( ( #240, #289, #263 ) ) REPRESENTATION_CONTEXT ( 'NONE', 'WORKASPACE' ) );
#252 = PRODUCT_RELATED_PRODUCT_CATEGORY ( 'part', '', ( #227 ) ) ;
#253 =( NAMED_UNIT ( * ) SI_UNIT ( $, .STERADIAN. ) SOLID_ANGLE_UNIT ( ) );
#254 = FILL_AREA_STYLE ('',( #261 ) ) ;
#255 = ORIENTED_EDGE ( 'NONE', *, *, #284, .F. ) ;
#256 = AXIS2_PLACEMENT_3D ( 'NONE', #87, #265, #168 ) ;
#257 =( NAMED_UNIT ( * ) PLANE_ANGLE_UNIT ( ) SI_UNIT ( $, .RADIAN. ) );
#258 = AXIS2_PLACEMENT_3D ( 'NONE', #191, #164, #138 ) ;
#259 = STYLED_ITEM ( 'NONE', ( #206 ), #180 ) ;
#260 = ORIENTED_EDGE ( 'NONE', *, *, #57, .F. ) ;
#261 = FILL_AREA_STYLE_COLOUR ( '', #293 ) ;
#262 = FILL_AREA_STYLE_COLOUR ( '', #136 ) ;
#263 =( NAMED_UNIT ( * ) SI_UNIT ( $, .STERADIAN. ) SOLID_ANGLE_UNIT ( ) );
#264 = PRESENTATION_LAYER_ASSIGNMENT (  '', '', ( #182 ) ) ;
#265 = DIRECTION ( 'NONE',  ( -1.000000000000000000, 0.000000000000000000, -0.000000000000000000 ) ) ;
#266 = CARTESIAN_POINT ( 'NONE',  ( -17.47792894757627025, 0.000000000000000000, 0.000000000000000000 ) ) ;
#267 = SURFACE_STYLE_FILL_AREA ( #333 ) ;
#268 = COLOUR_RGB ( '',1.000000000000000000, 0.7607843137254901578, 0.6549019607843137303 ) ;
#269 = ADVANCED_FACE ( 'NONE', ( #208, #298 ), #74, .F. ) ;
#270 =( NAMED_UNIT ( * ) PLANE_ANGLE_UNIT ( ) SI_UNIT ( $, .RADIAN. ) );
#271 =( LENGTH_UNIT ( ) NAMED_UNIT ( * ) SI_UNIT ( .MILLI., .METRE. ) );
#272 =( GEOMETRIC_REPRESENTATION_CONTEXT ( 3 ) GLOBAL_UNCERTAINTY_ASSIGNED_CONTEXT ( ( #173 ) ) GLOBAL_UNIT_ASSIGNED_CONTEXT ( ( #271, #40, #66 ) ) REPRESENTATION_CONTEXT ( 'NONE', 'WORKASPACE' ) );
#273 = SURFACE_STYLE_FILL_AREA ( #153 ) ;
#274 = UNCERTAINTY_MEASURE_WITH_UNIT (LENGTH_MEASURE( 1.000000000000000082E-05 ), #204, 'distance_accuracy_value', 'NONE');
#275 = AXIS2_PLACEMENT_3D ( 'NONE', #133, #330, #205 ) ;
#276 = COLOUR_RGB ( '',1.000000000000000000, 0.7607843137254901578, 0.6549019607843137303 ) ;
#277 = SURFACE_STYLE_FILL_AREA ( #254 ) ;
#278 = ADVANCED_FACE ( 'NONE', ( #170, #216 ), #239, .T. ) ;
#279 = SURFACE_STYLE_FILL_AREA ( #80 ) ;
#280 = AXIS2_PLACEMENT_3D ( 'NONE', #307, #8, #171 ) ;
#281 = STYLED_ITEM ( 'NONE', ( #120 ), #9 ) ;
#282 = EDGE_LOOP ( 'NONE', ( #237 ) ) ;
#283 = EDGE_LOOP ( 'NONE', ( #243 ) ) ;
#284 = EDGE_CURVE ( 'NONE', #285, #285, #224, .T. ) ;
#285 = VERTEX_POINT ( 'NONE', #146 ) ;
#286 = DIRECTION ( 'NONE',  ( 0.000000000000000000, 0.000000000000000000, 1.000000000000000000 ) ) ;
#287 = AXIS2_PLACEMENT_3D ( 'NONE', #112, #83, #111 ) ;
#288 = SURFACE_STYLE_FILL_AREA ( #334 ) ;
#289 =( NAMED_UNIT ( * ) PLANE_ANGLE_UNIT ( ) SI_UNIT ( $, .RADIAN. ) );
#290 = FACE_OUTER_BOUND ( 'NONE', #187, .T. ) ;
#291 = VERTEX_POINT ( 'NONE', #61 ) ;
#292 = COLOUR_RGB ( '',1.000000000000000000, 0.7607843137254901578, 0.6549019607843137303 ) ;
#293 = COLOUR_RGB ( '',1.000000000000000000, 0.7607843137254901578, 0.6549019607843137303 ) ;
#294 = PRODUCT_DEFINITION_CONTEXT ( 'detailed design', #78, 'design' ) ;
#295 = PRESENTATION_STYLE_ASSIGNMENT (( #73 ) ) ;
#296 = FILL_AREA_STYLE ('',( #202 ) ) ;
#297 = UNCERTAINTY_MEASURE_WITH_UNIT (LENGTH_MEASURE( 1.000000000000000082E-05 ), #240, 'distance_accuracy_value', 'NONE');
#298 = FACE_BOUND ( 'NONE', #134, .T. ) ;
#299 = FACE_OUTER_BOUND ( 'NONE', #89, .T. ) ;
#300 = FILL_AREA_STYLE_COLOUR ( '', #319 ) ;
#301 = PRODUCT_DEFINITION_SHAPE ( 'NONE', 'NONE',  #156 ) ;
#302 = ORIENTED_EDGE ( 'NONE', *, *, #284, .T. ) ;
#303 = VERTEX_POINT ( 'NONE', #244 ) ;
#304 = EDGE_CURVE ( 'NONE', #303, #303, #241, .T. ) ;
#305 = SURFACE_SIDE_STYLE ('',( #267 ) ) ;
#306 = SURFACE_SIDE_STYLE ('',( #288 ) ) ;
#307 = CARTESIAN_POINT ( 'NONE',  ( 1.529705854077835436, 0.000000000000000000, 0.000000000000000000 ) ) ;
#308 = AXIS2_PLACEMENT_3D ( 'NONE', #185, #209, #22 ) ;
#309 = CARTESIAN_POINT ( 'NONE',  ( 1.529705854077835436, 0.000000000000000000, 16.10000000000000142 ) ) ;
#310 = SURFACE_SIDE_STYLE ('',( #116 ) ) ;
#311 = UNCERTAINTY_MEASURE_WITH_UNIT (LENGTH_MEASURE( 1.000000000000000082E-05 ), #27, 'distance_accuracy_value', 'NONE');
#312 = PRESENTATION_STYLE_ASSIGNMENT (( #1 ) ) ;
#313 = DIRECTION ( 'NONE',  ( -1.000000000000000000, -0.000000000000000000, -0.000000000000000000 ) ) ;
#314 = STYLED_ITEM ( 'NONE', ( #127 ), #125 ) ;
#315 = FILL_AREA_STYLE_COLOUR ( '', #276 ) ;
#316 = EDGE_CURVE ( 'NONE', #109, #109, #324, .T. ) ;
#317 = SURFACE_STYLE_FILL_AREA ( #94 ) ;
#318 = PLANE ( 'NONE',  #132 ) ;
#319 = COLOUR_RGB ( '',1.000000000000000000, 0.7607843137254901578, 0.6549019607843137303 ) ;
#320 = PRESENTATION_STYLE_ASSIGNMENT (( #126 ) ) ;
#321 = MECHANICAL_DESIGN_GEOMETRIC_PRESENTATION_REPRESENTATION (  '', ( #281 ), #231 ) ;
#322 =( NAMED_UNIT ( * ) PLANE_ANGLE_UNIT ( ) SI_UNIT ( $, .RADIAN. ) );
#323 = EDGE_LOOP ( 'NONE', ( #154 ) ) ;
#324 = CIRCLE ( 'NONE', #97, 17.35000000000000142 ) ;
#325 = MECHANICAL_DESIGN_GEOMETRIC_PRESENTATION_REPRESENTATION (  '', ( #103 ), #32 ) ;
#326 =( LENGTH_UNIT ( ) NAMED_UNIT ( * ) SI_UNIT ( .MILLI., .METRE. ) );
#327 = DIRECTION ( 'NONE',  ( 0.000000000000000000, 0.000000000000000000, 1.000000000000000000 ) ) ;
#328 = PRESENTATION_STYLE_ASSIGNMENT (( #161 ) ) ;
#329 = AXIS2_PLACEMENT_3D ( 'NONE', #135, #128, #327 ) ;
#330 = DIRECTION ( 'NONE',  ( -1.000000000000000000, -0.000000000000000000, -0.000000000000000000 ) ) ;
#331 =( GEOMETRIC_REPRESENTATION_CONTEXT ( 3 ) GLOBAL_UNCERTAINTY_ASSIGNED_CONTEXT ( ( #274 ) ) GLOBAL_UNIT_ASSIGNED_CONTEXT ( ( #204, #322, #246 ) ) REPRESENTATION_CONTEXT ( 'NONE', 'WORKASPACE' ) );
#332 = CARTESIAN_POINT ( 'NONE',  ( -1.529705854077838989, 0.000000000000000000, 16.10000000000000142 ) ) ;
#333 = FILL_AREA_STYLE ('',( #220 ) ) ;
#334 = FILL_AREA_STYLE ('',( #262 ) ) ;
ENDSEC;
END-ISO-10303-21;
