ISO-10303-21;
HEADER;
FILE_DESCRIPTION (( 'STEP AP214' ),
    '1' );
FILE_NAME ('2046753.stp',
    '2024-05-02T14:50:58',
    ( '' ),
    ( '' ),
    'SwSTEP 2.0',
    'SolidWorks 2022',
    '' );
FILE_SCHEMA (( 'AUTOMOTIVE_DESIGN' ));
ENDSEC;

DATA;
#1 = ORIENTED_EDGE ( 'NONE', *, *, #76, .F. ) ;
#2 = MECHANICAL_DESIGN_GEOMETRIC_PRESENTATION_REPRESENTATION (  '', ( #90 ), #9 ) ;
#3 = ORIENTED_EDGE ( 'NONE', *, *, #23, .F. ) ;
#4 = VERTEX_POINT ( 'NONE', #50 ) ;
#5 = PRODUCT ( '2046753', '2046753', '', ( #52 ) ) ;
#6 = FACE_OUTER_BOUND ( 'NONE', #114, .T. ) ;
#7 = DIRECTION ( 'NONE',  ( 0.000000000000000000, 0.000000000000000000, 1.000000000000000000 ) ) ;
#8 = CYLINDRICAL_SURFACE ( 'NONE', #65, 14.80000000000000071 ) ;
#9 =( GEOMETRIC_REPRESENTATION_CONTEXT ( 3 ) GLOBAL_UNCERTAINTY_ASSIGNED_CONTEXT ( ( #134 ) ) GLOBAL_UNIT_ASSIGNED_CONTEXT ( ( #62, #36, #106 ) ) REPRESENTATION_CONTEXT ( 'NONE', 'WORKASPACE' ) );
#10 = ADVANCED_FACE ( 'NONE', ( #116, #15 ), #70, .T. ) ;
#11 = COLOUR_RGB ( '',0.7529411764705882248, 0.7529411764705882248, 0.7529411764705882248 ) ;
#12 = APPLICATION_CONTEXT ( 'automotive_design' ) ;
#13 = ORIENTED_EDGE ( 'NONE', *, *, #47, .T. ) ;
#14 = DIRECTION ( 'NONE',  ( 0.000000000000000000, 0.000000000000000000, -1.000000000000000000 ) ) ;
#15 = FACE_OUTER_BOUND ( 'NONE', #91, .T. ) ;
#16 = CARTESIAN_POINT ( 'NONE',  ( 0.000000000000000000, 0.000000000000000000, 0.000000000000000000 ) ) ;
#17 = SURFACE_STYLE_FILL_AREA ( #127 ) ;
#18 = SURFACE_STYLE_USAGE ( .BOTH. , #98 ) ;
#19 = AXIS2_PLACEMENT_3D ( 'NONE', #16, #45, #105 ) ;
#20 = ORIENTED_EDGE ( 'NONE', *, *, #76, .T. ) ;
#21 = AXIS2_PLACEMENT_3D ( 'NONE', #80, #103, #104 ) ;
#22 = MECHANICAL_DESIGN_GEOMETRIC_PRESENTATION_REPRESENTATION (  '', ( #109 ), #32 ) ;
#23 = EDGE_CURVE ( 'NONE', #107, #107, #67, .T. ) ;
#24 = EDGE_LOOP ( 'NONE', ( #3 ) ) ;
#25 =( LENGTH_UNIT ( ) NAMED_UNIT ( * ) SI_UNIT ( .MILLI., .METRE. ) );
#26 = FACE_OUTER_BOUND ( 'NONE', #92, .T. ) ;
#27 = APPLICATION_CONTEXT ( 'automotive_design' ) ;
#28 = AXIS2_PLACEMENT_3D ( 'NONE', #77, #133, #39 ) ;
#29 = DIRECTION ( 'NONE',  ( 1.000000000000000000, 0.000000000000000000, 0.000000000000000000 ) ) ;
#30 = SURFACE_STYLE_USAGE ( .BOTH. , #129 ) ;
#31 = ADVANCED_BREP_SHAPE_REPRESENTATION ( '2046753', ( #49, #28 ), #34 ) ;
#32 =( GEOMETRIC_REPRESENTATION_CONTEXT ( 3 ) GLOBAL_UNCERTAINTY_ASSIGNED_CONTEXT ( ( #66 ) ) GLOBAL_UNIT_ASSIGNED_CONTEXT ( ( #100, #64, #53 ) ) REPRESENTATION_CONTEXT ( 'NONE', 'WORKASPACE' ) );
#33 = CARTESIAN_POINT ( 'NONE',  ( 3000.000000000000000, 0.000000000000000000, 0.000000000000000000 ) ) ;
#34 =( GEOMETRIC_REPRESENTATION_CONTEXT ( 3 ) GLOBAL_UNCERTAINTY_ASSIGNED_CONTEXT ( ( #78 ) ) GLOBAL_UNIT_ASSIGNED_CONTEXT ( ( #25, #84, #118 ) ) REPRESENTATION_CONTEXT ( 'NONE', 'WORKASPACE' ) );
#35 = FACE_OUTER_BOUND ( 'NONE', #113, .T. ) ;
#36 =( NAMED_UNIT ( * ) PLANE_ANGLE_UNIT ( ) SI_UNIT ( $, .RADIAN. ) );
#37 = CARTESIAN_POINT ( 'NONE',  ( 0.000000000000000000, 0.000000000000000000, -16.00000000000000000 ) ) ;
#38 = FACE_BOUND ( 'NONE', #126, .T. ) ;
#39 = DIRECTION ( 'NONE',  ( 1.000000000000000000, 0.000000000000000000, 0.000000000000000000 ) ) ;
#40 = SHAPE_DEFINITION_REPRESENTATION ( #112, #31 ) ;
#41 = AXIS2_PLACEMENT_3D ( 'NONE', #83, #128, #121 ) ;
#42 = DIRECTION ( 'NONE',  ( 1.000000000000000000, 0.000000000000000000, 0.000000000000000000 ) ) ;
#43 = CIRCLE ( 'NONE', #41, 14.80000000000000071 ) ;
#44 = DIRECTION ( 'NONE',  ( 1.000000000000000000, 0.000000000000000000, 0.000000000000000000 ) ) ;
#45 = DIRECTION ( 'NONE',  ( 1.000000000000000000, 0.000000000000000000, 0.000000000000000000 ) ) ;
#46 = DIRECTION ( 'NONE',  ( 0.000000000000000000, 0.000000000000000000, -1.000000000000000000 ) ) ;
#47 = EDGE_CURVE ( 'NONE', #95, #95, #79, .T. ) ;
#48 = CARTESIAN_POINT ( 'NONE',  ( 3000.000000000000000, 0.000000000000000000, -16.00000000000000000 ) ) ;
#49 = MANIFOLD_SOLID_BREP ( 'Aufsatz-Linear austragen1', #59 ) ;
#50 = CARTESIAN_POINT ( 'NONE',  ( 0.000000000000000000, 0.000000000000000000, -14.80000000000000071 ) ) ;
#51 = SURFACE_STYLE_FILL_AREA ( #87 ) ;
#52 = PRODUCT_CONTEXT ( 'NONE', #27, 'mechanical' ) ;
#53 =( NAMED_UNIT ( * ) SI_UNIT ( $, .STERADIAN. ) SOLID_ANGLE_UNIT ( ) );
#54 = EDGE_LOOP ( 'NONE', ( #89 ) ) ;
#55 = ORIENTED_EDGE ( 'NONE', *, *, #23, .T. ) ;
#56 = FILL_AREA_STYLE_COLOUR ( '', #11 ) ;
#57 = ADVANCED_FACE ( 'NONE', ( #6, #38 ), #93, .F. ) ;
#58 = CARTESIAN_POINT ( 'NONE',  ( 0.000000000000000000, 0.000000000000000000, 0.000000000000000000 ) ) ;
#59 = CLOSED_SHELL ( 'NONE', ( #81, #57, #10, #96 ) ) ;
#60 = COLOUR_RGB ( '',0.7529411764705882248, 0.7529411764705882248, 0.7529411764705882248 ) ;
#61 = APPLICATION_PROTOCOL_DEFINITION ( 'draft international standard', 'automotive_design', 1998, #27 ) ;
#62 =( LENGTH_UNIT ( ) NAMED_UNIT ( * ) SI_UNIT ( .MILLI., .METRE. ) );
#63 = PRESENTATION_LAYER_ASSIGNMENT (  '', '', ( #90 ) ) ;
#64 =( NAMED_UNIT ( * ) PLANE_ANGLE_UNIT ( ) SI_UNIT ( $, .RADIAN. ) );
#65 = AXIS2_PLACEMENT_3D ( 'NONE', #123, #72, #7 ) ;
#66 = UNCERTAINTY_MEASURE_WITH_UNIT (LENGTH_MEASURE( 1.000000000000000082E-05 ), #100, 'distance_accuracy_value', 'NONE');
#67 = CIRCLE ( 'NONE', #132, 16.00000000000000000 ) ;
#68 = EDGE_LOOP ( 'NONE', ( #1 ) ) ;
#69 = AXIS2_PLACEMENT_3D ( 'NONE', #82, #29, #108 ) ;
#70 = CYLINDRICAL_SURFACE ( 'NONE', #21, 16.00000000000000000 ) ;
#71 = ORIENTED_EDGE ( 'NONE', *, *, #124, .T. ) ;
#72 = DIRECTION ( 'NONE',  ( -1.000000000000000000, -0.000000000000000000, -0.000000000000000000 ) ) ;
#73 = FACE_OUTER_BOUND ( 'NONE', #68, .T. ) ;
#74 = PLANE ( 'NONE',  #69 ) ;
#75 = CARTESIAN_POINT ( 'NONE',  ( 3000.000000000000000, 0.000000000000000000, -14.80000000000000071 ) ) ;
#76 = EDGE_CURVE ( 'NONE', #4, #4, #43, .T. ) ;
#77 = CARTESIAN_POINT ( 'NONE',  ( 0.000000000000000000, 0.000000000000000000, 0.000000000000000000 ) ) ;
#78 = UNCERTAINTY_MEASURE_WITH_UNIT (LENGTH_MEASURE( 1.000000000000000082E-05 ), #25, 'distance_accuracy_value', 'NONE');
#79 = CIRCLE ( 'NONE', #122, 14.80000000000000071 ) ;
#80 = CARTESIAN_POINT ( 'NONE',  ( 3000.000000000000000, 0.000000000000000000, 0.000000000000000000 ) ) ;
#81 = ADVANCED_FACE ( 'NONE', ( #35, #97 ), #74, .T. ) ;
#82 = CARTESIAN_POINT ( 'NONE',  ( 3000.000000000000000, 0.000000000000000000, 0.000000000000000000 ) ) ;
#83 = CARTESIAN_POINT ( 'NONE',  ( 0.000000000000000000, 0.000000000000000000, 0.000000000000000000 ) ) ;
#84 =( NAMED_UNIT ( * ) PLANE_ANGLE_UNIT ( ) SI_UNIT ( $, .RADIAN. ) );
#85 = VERTEX_POINT ( 'NONE', #37 ) ;
#86 = PRODUCT_RELATED_PRODUCT_CATEGORY ( 'part', '', ( #5 ) ) ;
#87 = FILL_AREA_STYLE ('',( #110 ) ) ;
#88 = PRODUCT_DEFINITION_CONTEXT ( 'detailed design', #12, 'design' ) ;
#89 = ORIENTED_EDGE ( 'NONE', *, *, #47, .F. ) ;
#90 = STYLED_ITEM ( 'NONE', ( #94 ), #49 ) ;
#91 = EDGE_LOOP ( 'NONE', ( #71 ) ) ;
#92 = EDGE_LOOP ( 'NONE', ( #13 ) ) ;
#93 = PLANE ( 'NONE',  #111 ) ;
#94 = PRESENTATION_STYLE_ASSIGNMENT (( #30 ) ) ;
#95 = VERTEX_POINT ( 'NONE', #75 ) ;
#96 = ADVANCED_FACE ( 'NONE', ( #26, #73 ), #8, .F. ) ;
#97 = FACE_BOUND ( 'NONE', #54, .T. ) ;
#98 = SURFACE_SIDE_STYLE ('',( #51 ) ) ;
#99 = PRESENTATION_STYLE_ASSIGNMENT (( #18 ) ) ;
#100 =( LENGTH_UNIT ( ) NAMED_UNIT ( * ) SI_UNIT ( .MILLI., .METRE. ) );
#101 = PRODUCT_DEFINITION ( 'UNKNOWN', '', #119, #88 ) ;
#102 = CARTESIAN_POINT ( 'NONE',  ( 3000.000000000000000, 0.000000000000000000, 0.000000000000000000 ) ) ;
#103 = DIRECTION ( 'NONE',  ( -1.000000000000000000, -0.000000000000000000, -0.000000000000000000 ) ) ;
#104 = DIRECTION ( 'NONE',  ( 0.000000000000000000, 0.000000000000000000, 1.000000000000000000 ) ) ;
#105 = DIRECTION ( 'NONE',  ( 0.000000000000000000, 0.000000000000000000, -1.000000000000000000 ) ) ;
#106 =( NAMED_UNIT ( * ) SI_UNIT ( $, .STERADIAN. ) SOLID_ANGLE_UNIT ( ) );
#107 = VERTEX_POINT ( 'NONE', #48 ) ;
#108 = DIRECTION ( 'NONE',  ( 0.000000000000000000, 0.000000000000000000, -1.000000000000000000 ) ) ;
#109 = STYLED_ITEM ( 'NONE', ( #99 ), #31 ) ;
#110 = FILL_AREA_STYLE_COLOUR ( '', #60 ) ;
#111 = AXIS2_PLACEMENT_3D ( 'NONE', #58, #130, #46 ) ;
#112 = PRODUCT_DEFINITION_SHAPE ( 'NONE', 'NONE',  #101 ) ;
#113 = EDGE_LOOP ( 'NONE', ( #55 ) ) ;
#114 = EDGE_LOOP ( 'NONE', ( #120 ) ) ;
#115 = DIRECTION ( 'NONE',  ( 0.000000000000000000, 0.000000000000000000, -1.000000000000000000 ) ) ;
#116 = FACE_OUTER_BOUND ( 'NONE', #24, .T. ) ;
#117 = PRESENTATION_LAYER_ASSIGNMENT (  '', '', ( #109 ) ) ;
#118 =( NAMED_UNIT ( * ) SI_UNIT ( $, .STERADIAN. ) SOLID_ANGLE_UNIT ( ) );
#119 = PRODUCT_DEFINITION_FORMATION_WITH_SPECIFIED_SOURCE ( 'ANY', '', #5, .NOT_KNOWN. ) ;
#120 = ORIENTED_EDGE ( 'NONE', *, *, #124, .F. ) ;
#121 = DIRECTION ( 'NONE',  ( 0.000000000000000000, 0.000000000000000000, -1.000000000000000000 ) ) ;
#122 = AXIS2_PLACEMENT_3D ( 'NONE', #102, #42, #14 ) ;
#123 = CARTESIAN_POINT ( 'NONE',  ( 3000.000000000000000, 0.000000000000000000, 0.000000000000000000 ) ) ;
#124 = EDGE_CURVE ( 'NONE', #85, #85, #125, .T. ) ;
#125 = CIRCLE ( 'NONE', #19, 16.00000000000000000 ) ;
#126 = EDGE_LOOP ( 'NONE', ( #20 ) ) ;
#127 = FILL_AREA_STYLE ('',( #56 ) ) ;
#128 = DIRECTION ( 'NONE',  ( 1.000000000000000000, 0.000000000000000000, 0.000000000000000000 ) ) ;
#129 = SURFACE_SIDE_STYLE ('',( #17 ) ) ;
#130 = DIRECTION ( 'NONE',  ( 1.000000000000000000, 0.000000000000000000, 0.000000000000000000 ) ) ;
#131 = APPLICATION_PROTOCOL_DEFINITION ( 'draft international standard', 'automotive_design', 1998, #12 ) ;
#132 = AXIS2_PLACEMENT_3D ( 'NONE', #33, #44, #115 ) ;
#133 = DIRECTION ( 'NONE',  ( 0.000000000000000000, 0.000000000000000000, 1.000000000000000000 ) ) ;
#134 = UNCERTAINTY_MEASURE_WITH_UNIT (LENGTH_MEASURE( 1.000000000000000082E-05 ), #62, 'distance_accuracy_value', 'NONE');
ENDSEC;
END-ISO-10303-21;
