ISO-10303-21;
HEADER;
FILE_DESCRIPTION (( 'STEP AP214' ),
    '1' );
FILE_NAME ('2046593.stp',
    '2022-02-25T07:22:52',
    ( '' ),
    ( '' ),
    'SwSTEP 2.0',
    'SolidWorks 2020',
    '' );
FILE_SCHEMA (( 'AUTOMOTIVE_DESIGN' ));
ENDSEC;

DATA;
#1 = FACE_OUTER_BOUND ( 'NONE', #56, .T. ) ;
#2 = ADVANCED_BREP_SHAPE_REPRESENTATION ( '2046593', ( #140, #88 ), #106 ) ;
#3 = DIRECTION ( 'NONE',  ( -0.000000000000000000, -0.000000000000000000, -1.000000000000000000 ) ) ;
#4 = FACE_OUTER_BOUND ( 'NONE', #213, .T. ) ;
#5 = SURFACE_STYLE_USAGE ( .BOTH. , #68 ) ;
#6 =( LENGTH_UNIT ( ) NAMED_UNIT ( * ) SI_UNIT ( .MILLI., .METRE. ) );
#7 = EDGE_CURVE ( 'NONE', #71, #71, #15, .T. ) ;
#8 = CARTESIAN_POINT ( 'NONE',  ( 0.000000000000000000, 0.000000000000000000, -0.1500000000000945022 ) ) ;
#9 = FACE_OUTER_BOUND ( 'NONE', #194, .T. ) ;
#10 = AXIS2_PLACEMENT_3D ( 'NONE', #173, #209, #86 ) ;
#11 = EDGE_LOOP ( 'NONE', ( #110 ) ) ;
#12 = ORIENTED_EDGE ( 'NONE', *, *, #184, .F. ) ;
#13 = FACE_OUTER_BOUND ( 'NONE', #126, .T. ) ;
#14 = EDGE_CURVE ( 'NONE', #85, #85, #166, .T. ) ;
#15 = CIRCLE ( 'NONE', #176, 7.849999999999999645 ) ;
#16 = CIRCLE ( 'NONE', #206, 8.000000000000000000 ) ;
#17 = DIRECTION ( 'NONE',  ( -0.000000000000000000, -0.000000000000000000, -1.000000000000000000 ) ) ;
#18 = PRODUCT_CONTEXT ( 'NONE', #105, 'mechanical' ) ;
#19 = DIRECTION ( 'NONE',  ( 1.000000000000000000, 0.000000000000000000, 0.000000000000000000 ) ) ;
#20 = PRODUCT ( '2046593', '2046593', '', ( #18 ) ) ;
#21 = DIRECTION ( 'NONE',  ( 0.000000000000000000, 0.000000000000000000, 1.000000000000000000 ) ) ;
#22 = TOROIDAL_SURFACE ( 'NONE', #203, 7.849999999999999645, 0.1499999999999999944 ) ;
#23 = VERTEX_POINT ( 'NONE', #154 ) ;
#24 = VERTEX_POINT ( 'NONE', #205 ) ;
#25 = FILL_AREA_STYLE_COLOUR ( '', #132 ) ;
#26 = TOROIDAL_SURFACE ( 'NONE', #75, 7.200000000000000178, 0.1499999999999999944 ) ;
#27 = EDGE_LOOP ( 'NONE', ( #196 ) ) ;
#28 = DIRECTION ( 'NONE',  ( 0.000000000000000000, 0.000000000000000000, 1.000000000000000000 ) ) ;
#29 = EDGE_CURVE ( 'NONE', #24, #24, #115, .T. ) ;
#30 = ORIENTED_EDGE ( 'NONE', *, *, #29, .T. ) ;
#31 = EDGE_LOOP ( 'NONE', ( #162 ) ) ;
#32 = AXIS2_PLACEMENT_3D ( 'NONE', #201, #17, #80 ) ;
#33 = ORIENTED_EDGE ( 'NONE', *, *, #29, .F. ) ;
#34 = FACE_OUTER_BOUND ( 'NONE', #130, .T. ) ;
#35 =( LENGTH_UNIT ( ) NAMED_UNIT ( * ) SI_UNIT ( .MILLI., .METRE. ) );
#36 = AXIS2_PLACEMENT_3D ( 'NONE', #146, #109, #161 ) ;
#37 = DIRECTION ( 'NONE',  ( 1.000000000000000000, 0.000000000000000000, 0.000000000000000000 ) ) ;
#38 = DIRECTION ( 'NONE',  ( -0.000000000000000000, -0.000000000000000000, -1.000000000000000000 ) ) ;
#39 = DIRECTION ( 'NONE',  ( 0.000000000000000000, 0.000000000000000000, 1.000000000000000000 ) ) ;
#40 = CIRCLE ( 'NONE', #32, 7.200000000000000178 ) ;
#41 = FACE_OUTER_BOUND ( 'NONE', #78, .T. ) ;
#42 = EDGE_LOOP ( 'NONE', ( #108 ) ) ;
#43 = EDGE_CURVE ( 'NONE', #102, #102, #174, .T. ) ;
#44 = CARTESIAN_POINT ( 'NONE',  ( 0.000000000000000000, 0.000000000000000000, -0.1500000000000945022 ) ) ;
#45 = FACE_OUTER_BOUND ( 'NONE', #95, .T. ) ;
#46 = CYLINDRICAL_SURFACE ( 'NONE', #36, 8.000000000000000000 ) ;
#47 = FACE_OUTER_BOUND ( 'NONE', #27, .T. ) ;
#48 = EDGE_CURVE ( 'NONE', #171, #171, #40, .T. ) ;
#49 =( NAMED_UNIT ( * ) SI_UNIT ( $, .STERADIAN. ) SOLID_ANGLE_UNIT ( ) );
#50 = UNCERTAINTY_MEASURE_WITH_UNIT (LENGTH_MEASURE( 1.000000000000000082E-05 ), #6, 'distance_accuracy_value', 'NONE');
#51 = CARTESIAN_POINT ( 'NONE',  ( 7.049999999999999822, 0.000000000000000000, -2999.849999999999909 ) ) ;
#52 = DIRECTION ( 'NONE',  ( 1.000000000000000000, 0.000000000000000000, 0.000000000000000000 ) ) ;
#53 = CARTESIAN_POINT ( 'NONE',  ( 7.849999999999999645, 0.000000000000000000, -3000.000000000000000 ) ) ;
#54 = TOROIDAL_SURFACE ( 'NONE', #180, 7.200000000000000178, 0.1499999999999999944 ) ;
#55 = DIRECTION ( 'NONE',  ( 0.000000000000000000, 0.000000000000000000, 1.000000000000000000 ) ) ;
#56 = EDGE_LOOP ( 'NONE', ( #30 ) ) ;
#57 = ADVANCED_FACE ( 'NONE', ( #1, #45 ), #46, .T. ) ;
#58 = ORIENTED_EDGE ( 'NONE', *, *, #192, .F. ) ;
#59 = PLANE ( 'NONE',  #211 ) ;
#60 = AXIS2_PLACEMENT_3D ( 'NONE', #198, #3, #131 ) ;
#61 = EDGE_LOOP ( 'NONE', ( #164 ) ) ;
#62 = CARTESIAN_POINT ( 'NONE',  ( 0.000000000000000000, 0.000000000000000000, 0.000000000000000000 ) ) ;
#63 = DIRECTION ( 'NONE',  ( -0.000000000000000000, -0.000000000000000000, -1.000000000000000000 ) ) ;
#64 = STYLED_ITEM ( 'NONE', ( #204 ), #140 ) ;
#65 = PRODUCT_DEFINITION_SHAPE ( 'NONE', 'NONE',  #207 ) ;
#66 = ADVANCED_FACE ( 'NONE', ( #177, #79 ), #54, .T. ) ;
#67 = CARTESIAN_POINT ( 'NONE',  ( 0.000000000000000000, 0.000000000000000000, -2999.849999999999909 ) ) ;
#68 = SURFACE_SIDE_STYLE ('',( #116 ) ) ;
#69 = FILL_AREA_STYLE_COLOUR ( '', #137 ) ;
#70 = APPLICATION_CONTEXT ( 'automotive_design' ) ;
#71 = VERTEX_POINT ( 'NONE', #122 ) ;
#72 = VERTEX_POINT ( 'NONE', #188 ) ;
#73 = STYLED_ITEM ( 'NONE', ( #99 ), #2 ) ;
#74 = FACE_OUTER_BOUND ( 'NONE', #125, .T. ) ;
#75 = AXIS2_PLACEMENT_3D ( 'NONE', #107, #89, #157 ) ;
#76 = DIRECTION ( 'NONE',  ( 1.000000000000000000, 0.000000000000000000, -0.000000000000000000 ) ) ;
#77 = AXIS2_PLACEMENT_3D ( 'NONE', #138, #155, #37 ) ;
#78 = EDGE_LOOP ( 'NONE', ( #197 ) ) ;
#79 = FACE_OUTER_BOUND ( 'NONE', #42, .T. ) ;
#80 = DIRECTION ( 'NONE',  ( 1.000000000000000000, 0.000000000000000000, 0.000000000000000000 ) ) ;
#81 = CARTESIAN_POINT ( 'NONE',  ( 0.000000000000000000, 0.000000000000000000, 0.000000000000000000 ) ) ;
#82 =( LENGTH_UNIT ( ) NAMED_UNIT ( * ) SI_UNIT ( .MILLI., .METRE. ) );
#83 = FILL_AREA_STYLE ('',( #69 ) ) ;
#84 = VERTEX_POINT ( 'NONE', #119 ) ;
#85 = VERTEX_POINT ( 'NONE', #53 ) ;
#86 = DIRECTION ( 'NONE',  ( 1.000000000000000000, 0.000000000000000000, 0.000000000000000000 ) ) ;
#87 = ADVANCED_FACE ( 'NONE', ( #13, #214 ), #59, .F. ) ;
#88 = AXIS2_PLACEMENT_3D ( 'NONE', #62, #165, #19 ) ;
#89 = DIRECTION ( 'NONE',  ( 0.000000000000000000, 0.000000000000000000, 1.000000000000000000 ) ) ;
#90 = MECHANICAL_DESIGN_GEOMETRIC_PRESENTATION_REPRESENTATION (  '', ( #64 ), #152 ) ;
#91 = ORIENTED_EDGE ( 'NONE', *, *, #7, .F. ) ;
#92 = DIRECTION ( 'NONE',  ( 1.000000000000000000, 0.000000000000000000, 0.000000000000000000 ) ) ;
#93 = ORIENTED_EDGE ( 'NONE', *, *, #7, .T. ) ;
#94 = DIRECTION ( 'NONE',  ( 0.000000000000000000, 0.000000000000000000, 1.000000000000000000 ) ) ;
#95 = EDGE_LOOP ( 'NONE', ( #145 ) ) ;
#96 = MECHANICAL_DESIGN_GEOMETRIC_PRESENTATION_REPRESENTATION (  '', ( #73 ), #128 ) ;
#97 = PRODUCT_DEFINITION_CONTEXT ( 'detailed design', #70, 'design' ) ;
#98 = CYLINDRICAL_SURFACE ( 'NONE', #167, 7.049999999999999822 ) ;
#99 = PRESENTATION_STYLE_ASSIGNMENT (( #187 ) ) ;
#100 = TOROIDAL_SURFACE ( 'NONE', #10, 7.849999999999999645, 0.1499999999999999944 ) ;
#101 = PRESENTATION_LAYER_ASSIGNMENT (  '', '', ( #73 ) ) ;
#102 = VERTEX_POINT ( 'NONE', #51 ) ;
#103 = EDGE_CURVE ( 'NONE', #84, #84, #114, .T. ) ;
#104 = DIRECTION ( 'NONE',  ( 1.000000000000000000, 0.000000000000000000, -0.000000000000000000 ) ) ;
#105 = APPLICATION_CONTEXT ( 'automotive_design' ) ;
#106 =( GEOMETRIC_REPRESENTATION_CONTEXT ( 3 ) GLOBAL_UNCERTAINTY_ASSIGNED_CONTEXT ( ( #50 ) ) GLOBAL_UNIT_ASSIGNED_CONTEXT ( ( #6, #170, #135 ) ) REPRESENTATION_CONTEXT ( 'NONE', 'WORKASPACE' ) );
#107 = CARTESIAN_POINT ( 'NONE',  ( 0.000000000000000000, 0.000000000000000000, -2999.849999999999909 ) ) ;
#108 = ORIENTED_EDGE ( 'NONE', *, *, #103, .F. ) ;
#109 = DIRECTION ( 'NONE',  ( 0.000000000000000000, 0.000000000000000000, 1.000000000000000000 ) ) ;
#110 = ORIENTED_EDGE ( 'NONE', *, *, #103, .T. ) ;
#111 = ADVANCED_FACE ( 'NONE', ( #41, #9 ), #26, .T. ) ;
#112 = CARTESIAN_POINT ( 'NONE',  ( 0.000000000000000000, 0.000000000000000000, -2999.849999999999909 ) ) ;
#113 = DIRECTION ( 'NONE',  ( 1.000000000000000000, 0.000000000000000000, 0.000000000000000000 ) ) ;
#114 = CIRCLE ( 'NONE', #141, 7.049999999999999822 ) ;
#115 = CIRCLE ( 'NONE', #147, 8.000000000000000000 ) ;
#116 = SURFACE_STYLE_FILL_AREA ( #123 ) ;
#117 =( NAMED_UNIT ( * ) PLANE_ANGLE_UNIT ( ) SI_UNIT ( $, .RADIAN. ) );
#118 = SURFACE_SIDE_STYLE ('',( #153 ) ) ;
#119 = CARTESIAN_POINT ( 'NONE',  ( 7.049999999999999822, 0.000000000000000000, -0.1500000000000945022 ) ) ;
#120 = CLOSED_SHELL ( 'NONE', ( #57, #87, #121, #150, #144, #111, #127, #66 ) ) ;
#121 = ADVANCED_FACE ( 'NONE', ( #210, #175 ), #156, .T. ) ;
#122 = CARTESIAN_POINT ( 'NONE',  ( 7.849999999999999645, 0.000000000000000000, 0.000000000000000000 ) ) ;
#123 = FILL_AREA_STYLE ('',( #25 ) ) ;
#124 = DIRECTION ( 'NONE',  ( 0.000000000000000000, 0.000000000000000000, 1.000000000000000000 ) ) ;
#125 = EDGE_LOOP ( 'NONE', ( #58 ) ) ;
#126 = EDGE_LOOP ( 'NONE', ( #158 ) ) ;
#127 = ADVANCED_FACE ( 'NONE', ( #74, #139 ), #100, .T. ) ;
#128 =( GEOMETRIC_REPRESENTATION_CONTEXT ( 3 ) GLOBAL_UNCERTAINTY_ASSIGNED_CONTEXT ( ( #183 ) ) GLOBAL_UNIT_ASSIGNED_CONTEXT ( ( #35, #117, #49 ) ) REPRESENTATION_CONTEXT ( 'NONE', 'WORKASPACE' ) );
#129 = SHAPE_DEFINITION_REPRESENTATION ( #65, #2 ) ;
#130 = EDGE_LOOP ( 'NONE', ( #33 ) ) ;
#131 = DIRECTION ( 'NONE',  ( 1.000000000000000000, 0.000000000000000000, 0.000000000000000000 ) ) ;
#132 = COLOUR_RGB ( '',0.7529411764705882248, 0.7529411764705882248, 0.7529411764705882248 ) ;
#133 = DIRECTION ( 'NONE',  ( 0.000000000000000000, 0.000000000000000000, 1.000000000000000000 ) ) ;
#134 = AXIS2_PLACEMENT_3D ( 'NONE', #112, #63, #181 ) ;
#135 =( NAMED_UNIT ( * ) SI_UNIT ( $, .STERADIAN. ) SOLID_ANGLE_UNIT ( ) );
#136 = UNCERTAINTY_MEASURE_WITH_UNIT (LENGTH_MEASURE( 1.000000000000000082E-05 ), #82, 'distance_accuracy_value', 'NONE');
#137 = COLOUR_RGB ( '',0.7529411764705882248, 0.7529411764705882248, 0.7529411764705882248 ) ;
#138 = CARTESIAN_POINT ( 'NONE',  ( 0.000000000000000000, 0.000000000000000000, -3000.000000000000000 ) ) ;
#139 = FACE_OUTER_BOUND ( 'NONE', #179, .T. ) ;
#140 = MANIFOLD_SOLID_BREP ( 'Verrundung1', #120 ) ;
#141 = AXIS2_PLACEMENT_3D ( 'NONE', #142, #124, #193 ) ;
#142 = CARTESIAN_POINT ( 'NONE',  ( 0.000000000000000000, 0.000000000000000000, -0.1500000000000945022 ) ) ;
#143 = EDGE_LOOP ( 'NONE', ( #178 ) ) ;
#144 = ADVANCED_FACE ( 'NONE', ( #47, #34 ), #22, .T. ) ;
#145 = ORIENTED_EDGE ( 'NONE', *, *, #192, .T. ) ;
#146 = CARTESIAN_POINT ( 'NONE',  ( 0.000000000000000000, 0.000000000000000000, -3000.000000000000000 ) ) ;
#147 = AXIS2_PLACEMENT_3D ( 'NONE', #148, #94, #163 ) ;
#148 = CARTESIAN_POINT ( 'NONE',  ( 0.000000000000000000, 0.000000000000000000, -2999.849999999999909 ) ) ;
#149 = DIRECTION ( 'NONE',  ( 0.000000000000000000, 0.000000000000000000, 1.000000000000000000 ) ) ;
#150 = ADVANCED_FACE ( 'NONE', ( #4, #186 ), #98, .F. ) ;
#151 =( NAMED_UNIT ( * ) SI_UNIT ( $, .STERADIAN. ) SOLID_ANGLE_UNIT ( ) );
#152 =( GEOMETRIC_REPRESENTATION_CONTEXT ( 3 ) GLOBAL_UNCERTAINTY_ASSIGNED_CONTEXT ( ( #136 ) ) GLOBAL_UNIT_ASSIGNED_CONTEXT ( ( #82, #185, #151 ) ) REPRESENTATION_CONTEXT ( 'NONE', 'WORKASPACE' ) );
#153 = SURFACE_STYLE_FILL_AREA ( #83 ) ;
#154 = CARTESIAN_POINT ( 'NONE',  ( 8.000000000000000000, 0.000000000000000000, -0.1500000000000945022 ) ) ;
#155 = DIRECTION ( 'NONE',  ( 0.000000000000000000, 0.000000000000000000, 1.000000000000000000 ) ) ;
#156 = PLANE ( 'NONE',  #200 ) ;
#157 = DIRECTION ( 'NONE',  ( 1.000000000000000000, 0.000000000000000000, 0.000000000000000000 ) ) ;
#158 = ORIENTED_EDGE ( 'NONE', *, *, #14, .T. ) ;
#159 = PRODUCT_DEFINITION_FORMATION_WITH_SPECIFIED_SOURCE ( 'ANY', '', #20, .NOT_KNOWN. ) ;
#160 = ORIENTED_EDGE ( 'NONE', *, *, #43, .T. ) ;
#161 = DIRECTION ( 'NONE',  ( 1.000000000000000000, 0.000000000000000000, 0.000000000000000000 ) ) ;
#162 = ORIENTED_EDGE ( 'NONE', *, *, #184, .T. ) ;
#163 = DIRECTION ( 'NONE',  ( 1.000000000000000000, 0.000000000000000000, 0.000000000000000000 ) ) ;
#164 = ORIENTED_EDGE ( 'NONE', *, *, #48, .F. ) ;
#165 = DIRECTION ( 'NONE',  ( 0.000000000000000000, 0.000000000000000000, 1.000000000000000000 ) ) ;
#166 = CIRCLE ( 'NONE', #60, 7.849999999999999645 ) ;
#167 = AXIS2_PLACEMENT_3D ( 'NONE', #169, #21, #52 ) ;
#168 = PRODUCT_RELATED_PRODUCT_CATEGORY ( 'part', '', ( #20 ) ) ;
#169 = CARTESIAN_POINT ( 'NONE',  ( 0.000000000000000000, 0.000000000000000000, -3000.000000000000000 ) ) ;
#170 =( NAMED_UNIT ( * ) PLANE_ANGLE_UNIT ( ) SI_UNIT ( $, .RADIAN. ) );
#171 = VERTEX_POINT ( 'NONE', #172 ) ;
#172 = CARTESIAN_POINT ( 'NONE',  ( 7.200000000000000178, 0.000000000000000000, 0.000000000000000000 ) ) ;
#173 = CARTESIAN_POINT ( 'NONE',  ( 0.000000000000000000, 0.000000000000000000, -0.1500000000000945022 ) ) ;
#174 = CIRCLE ( 'NONE', #134, 7.049999999999999822 ) ;
#175 = FACE_BOUND ( 'NONE', #143, .T. ) ;
#176 = AXIS2_PLACEMENT_3D ( 'NONE', #81, #149, #113 ) ;
#177 = FACE_OUTER_BOUND ( 'NONE', #61, .T. ) ;
#178 = ORIENTED_EDGE ( 'NONE', *, *, #48, .T. ) ;
#179 = EDGE_LOOP ( 'NONE', ( #91 ) ) ;
#180 = AXIS2_PLACEMENT_3D ( 'NONE', #44, #28, #92 ) ;
#181 = DIRECTION ( 'NONE',  ( 1.000000000000000000, 0.000000000000000000, 0.000000000000000000 ) ) ;
#182 = APPLICATION_PROTOCOL_DEFINITION ( 'draft international standard', 'automotive_design', 1998, #70 ) ;
#183 = UNCERTAINTY_MEASURE_WITH_UNIT (LENGTH_MEASURE( 1.000000000000000082E-05 ), #35, 'distance_accuracy_value', 'NONE');
#184 = EDGE_CURVE ( 'NONE', #72, #72, #190, .T. ) ;
#185 =( NAMED_UNIT ( * ) PLANE_ANGLE_UNIT ( ) SI_UNIT ( $, .RADIAN. ) );
#186 = FACE_OUTER_BOUND ( 'NONE', #11, .T. ) ;
#187 = SURFACE_STYLE_USAGE ( .BOTH. , #118 ) ;
#188 = CARTESIAN_POINT ( 'NONE',  ( 7.200000000000000178, 0.000000000000000000, -3000.000000000000000 ) ) ;
#189 = PRESENTATION_LAYER_ASSIGNMENT (  '', '', ( #64 ) ) ;
#190 = CIRCLE ( 'NONE', #77, 7.200000000000000178 ) ;
#191 = CARTESIAN_POINT ( 'NONE',  ( 0.000000000000000000, 0.000000000000000000, 0.000000000000000000 ) ) ;
#192 = EDGE_CURVE ( 'NONE', #23, #23, #16, .T. ) ;
#193 = DIRECTION ( 'NONE',  ( 1.000000000000000000, 0.000000000000000000, 0.000000000000000000 ) ) ;
#194 = EDGE_LOOP ( 'NONE', ( #12 ) ) ;
#195 = CARTESIAN_POINT ( 'NONE',  ( 0.000000000000000000, 0.000000000000000000, -3000.000000000000000 ) ) ;
#196 = ORIENTED_EDGE ( 'NONE', *, *, #14, .F. ) ;
#197 = ORIENTED_EDGE ( 'NONE', *, *, #43, .F. ) ;
#198 = CARTESIAN_POINT ( 'NONE',  ( 0.000000000000000000, 0.000000000000000000, -3000.000000000000000 ) ) ;
#199 = APPLICATION_PROTOCOL_DEFINITION ( 'draft international standard', 'automotive_design', 1998, #105 ) ;
#200 = AXIS2_PLACEMENT_3D ( 'NONE', #191, #39, #104 ) ;
#201 = CARTESIAN_POINT ( 'NONE',  ( 0.000000000000000000, 0.000000000000000000, 0.000000000000000000 ) ) ;
#202 = DIRECTION ( 'NONE',  ( 1.000000000000000000, 0.000000000000000000, 0.000000000000000000 ) ) ;
#203 = AXIS2_PLACEMENT_3D ( 'NONE', #67, #133, #202 ) ;
#204 = PRESENTATION_STYLE_ASSIGNMENT (( #5 ) ) ;
#205 = CARTESIAN_POINT ( 'NONE',  ( 8.000000000000000000, 0.000000000000000000, -2999.849999999999909 ) ) ;
#206 = AXIS2_PLACEMENT_3D ( 'NONE', #8, #38, #208 ) ;
#207 = PRODUCT_DEFINITION ( 'UNKNOWN', '', #159, #97 ) ;
#208 = DIRECTION ( 'NONE',  ( 1.000000000000000000, 0.000000000000000000, 0.000000000000000000 ) ) ;
#209 = DIRECTION ( 'NONE',  ( 0.000000000000000000, 0.000000000000000000, 1.000000000000000000 ) ) ;
#210 = FACE_OUTER_BOUND ( 'NONE', #212, .T. ) ;
#211 = AXIS2_PLACEMENT_3D ( 'NONE', #195, #55, #76 ) ;
#212 = EDGE_LOOP ( 'NONE', ( #93 ) ) ;
#213 = EDGE_LOOP ( 'NONE', ( #160 ) ) ;
#214 = FACE_BOUND ( 'NONE', #31, .T. ) ;
ENDSEC;
END-ISO-10303-21;
